Guitar Tabs, Chords and Lyrics
Login is temporarily disabled for some users. Do not panic. Will be back in an hour or two. DO NOT REREGISTER!!


Headlights  Morning Parade

Tuning: Drop D (DADGBe)
In the song he doesn't actually play A the second time, it just sounds really nice bc other instruments in the
background play it. And it drives me crazy that he doesn't! However, in the acoustic version he does play it
towards the end.
The extra space after the Gb (also D* and A) chord has nothing to do with the way it's played, I just couldn't
fit the letters above it without the space!
Please note some chords are not referred to by their actual chord name, I have given them a random name
to make it easier. (i.e. G5, G5*, D*, A*) A* isn't even a chord it's just a single note. And A*/D* just means
slide from the 7th to 4th fret.
Intro
[Bm] [A] [Gb] [G] [A]  
 
 e|-x-x-x--x-x---------------------------------------------------------------------|
 B|-x-x-x--x-x---------------------------------------------------------------------|
 G|-7-6-2--4-6---------------------------------------------------------------------|
 D|-0-0-0--0-0---------------------------------------------------------------------|
 A|-x-x-x--x-x---------------------------------------------------------------------|
 D|-9-7-4--5-7---------------------------------------------------------------------|

Chorus
In the chorus, one guitar plays the chords D and G5 only, and a second guitar adds a little riff
with the A on the high e string. However, I like the way it sounds so much so, I came up with a way
to incorporate it for you guys!
D G5 G5* (We'll call it G5 to keep it simple)
 
 e|--2---x--5--------------------------------------------------------------------|
 B|--3---7--7--------------------------------------------------------------------|
 G|--2---7--7--------------------------------------------------------------------|
 D|--0---5--5--------------------------------------------------------------------|
 A|-(0)--5--5--------------------------------------------------------------------|
 D|-(0)--5--5--------------------------------------------------------------------|

Refrain
Bm A G Gb G A Bm A G Gb D* A*
 
 e|-x-x-x-x--x-x--x-x-x-x--x--x-------------------------------------------------------------|
 B|-x-x-x-x--x-x--x-x-x-x--x--x-------------------------------------------------------------|
 G|-7-6-4-2--4-6--7-6-4-2--x--x-------------------------------------------------------------|
 D|-0-0-0-0--0-0--0-0-0-0--4--7-------------------------------------------------------------|
 A|-x-x-x-x--x-x--x-x-x-x--x--x-------------------------------------------------------------|
 D|-9-7-5-4--5-7--9-7-5-4--0--x-------------------------------------------------------------|

(Intro) Lick
[Bm] [A] [Gb] [G] [Gb] [G] [A] [G] [A]  
 
 e|-x-x-x--x-x--x-x-x-x----------------------------------------------------------------|
 B|-x-x-x--x-x--x-x-x-x----------------------------------------------------------------|
 G|-7-6-2--4-2--4-6-4-6----------------------------------------------------------------|
 D|-0-0-0--0-0--0-0-0-0----------------------------------------------------------------|
 A|-x-x-x--x-x--x-x-x-x----------------------------------------------------------------|
 D|-9-7-4--5-4--5-7-5-7----------------------------------------------------------------|

(Play intro twice before lyrics come in)
[Bm] Late [A]like [Gb]the e[G]vening sun, I
[Bm] I sink [A]to [Gb]the [G]ground.
[Bm] But I'll [A]keep m[Gb]y pr[G]omises, I
[Bm] I won't l[A]et [Gb]you [G]down.
D G5 G5*
'Cause like a rabbit in your headlights
D G5 G5*
I am the beckon to your call.
D G5 G5*
And like the early morning headlines,
I am [Bm]all t[A]oo [G]pre[Gb]dict[G]able.
A Bm A G Gb D*
I am all too predictable.
D* A* A* A*/D*
(Oh oh oh-oh.)
I'm not lazy the rest is just the exact same as before there are
no different parts except for this one:
[Bm] You're steady [A]as[Gb] I c[G]ome undone, you
[Bm] You're qui[A]et[Gb]ly [G]bow [Gb]ow [G]ow [A]ow o[G]und.[A]

Important: The song above is NOT stored on the Chordie server. The original song is hosted at www.azchords.com. Chordie works as a search engine and provides on-the-fly formatting. Chordie does not index songs against artists'/composers' will. To remove this song please click here.

Text color:
Chord color:
Chord grids: 
Font size:    
Page size: 

A Bm G Gb
Rate #1 of 3 versions

Jango Player

Login - add to songbook

SHARE PAGE  



You need to log in to post comments