Guitar Tabs, Chords and Lyrics
Update 25:10. 13:00. Site is back up running again. Songbooks are recovered. Woring on getting search back up..


Wild Night  Van Morrison

WILD NIGHT - Van Morrison
Em:xxx000, C:xxx988, F:xxx10108, D5:x577xx, D7:x5757x, C(type2):xxx010, D:xxx232
Em(type2):xxx453, G:xxx433, C(type3):xxx553, Gm:xxx333, Em(type3):022000, Em(type4):xxx987, G(type2):xxx787, D:xxx775
Intro and verse rhythm (mostly upstrokes on the top 3 strings):
Em Em(type4) G C/G Gm G C/G Gm G C/G Gm G
VERSE 1:
Em Em(type4) G C/G Gm G C/G Gm G C/G Gm G
As you brush your shoes, and stand before the mirror
And you comb your hair, and grab your coat and hat
Em Em(type4) G C/G Gm G Em(type4)(see tab below for notes)
And you walk west streets trying to remember
C5 C6 C5 D5 D6 D5 G5 C/G C C/G C5 G (stop)
All the wild night breezes in your memory ever
CHORUS:
And everyt[Em]hing looks so com[C]plete[F] [C]
When [Em]you're walking out on the [C]street[F] [C]
And [Em]the wind catches your [C]feet and [F]sends [C]you fly[D5]ing, cry[D7]ing
Em C(type2) D Em(type2) Em D Griff (1 meas. each, change at last 1/8th)
Ooh wee! The wild night is calling
Em C(type2) D Em(type2) Em D Griff (twice and stop)
Ooh wee! The wild night is calling
VERSE 2:
All the girls walk by, dressed up for each other
And the boys do the boogie woogie on the corner of the street
And the people passin' by just stare in wide wonder
And the inside jukebox roars out just like thunder
CHORUS ?? after the 2nd chorus, go straight into the CHORUS B ??Well the . . .??
CHORUS B:
Em(type3) Em(type4) Em(type3) Em(type4) G C(type3)G C(type3)G C(type3)G Em
 
 wi--------------ld night is calling The

Em(type3) Em(type4) Em(type3) Em(type4) G C(type3)G C(type3)G C(type3)G Em
 
 wi--------------ld night is calling Come on out and dance

Em(type4) )( G(type2) )( )( )
Come on out and make romance
( Em(type4) )( D(type2) Griff
Come on out and dance, come on out, make romance
SOLO (over intro/verse riff, 2 times)
REPEAT CHORUS B, END
BASS THRU VERSE:
This meas. 2X
 
 G----------------]----------------]----------------]----------------]
 D------5---------]----5-----------]----------------]5-----5---------]
 A--7-----7-5---5-]7-----7-5-------]----------5-7-5-]--------7-5---5-]
 E------------7---]----------7--5--]3--3--5/7-------]------------7---]

BASS PRE-CHORUS:
 
 G----------------]-----------------------] Repeat 3x
 D----------------]----------5-7v5---5----]
 A--7-----7-5---3-]--3-5/7-5-------7---7--]
 E----------------]-----------------------]

BASS CHORUS (Repeat 2x):
 
 G---------------]---]---]------7----------]---]---]----------------]----------------]
 D---------------]---]---]-5-7/9-9/7-5-----]---]---]-------------5--]5-5---5-5-5-----]
 A7-7---7-7-7---7]-7-]-5-]7--3---------7-5-]-7-]-5-]-------5-7--5-7-]------------7-5-]
 E---------------]---]---]-----------------]---]---]-3-5/7----------]----------------]


Important: The song above is NOT stored on the Chordie server. The original song is hosted at www.azchords.com. Chordie works as a search engine and provides on-the-fly formatting. Chordie does not index songs against artists'/composers' will. To remove this song please click here.

Text color:
Chord color:
Chord grids: 
Font size:    
Page size: 

C D5 D7 Em F
Rate #11 of 11 versions

Jango Player

Login - add to songbook

SHARE PAGE  



You need to log in to post comments