Guitar Tabs, Chords and Lyrics
Server problems seems to be fixed. Chordie has been experiencing problems with songs disappearing. These issues now seems to be fixed, but still verifying the fix. If you find anything strange, please email admin@chordie.com.


Kill Some Day  Motorpsycho

[Cbords] 
G * is played like this
^ v ^ v ^ v ^ v ^
 
 e|-2-------------2--2--2--2--2--|
 B|-0-------------0--0--0--0--0--|
 G|-0-------------0--0--0--0--0--|
 D|-0--0----------0--0--0--0--0--|
 A|-3--3---0--0---3--3--3--3--3--|
 E|-2--2---2--2---2--2--2--2--2--|

[Intro] 
 
 e|-----------------------------|-----------------------------|
 B|-----------------------------|-----------------------------|
 G|------14------14---------14--|------14------14-------------|
 D|--12------11------11h12------|--12------11------11h12--14--|
 A|-----------------------------|-----------------------------|
 E|-----------------------------|-----------------------------|
 e|-----------------|-------------------|
 B|----------12-----|-------------------|
 G|------14------12-|-12-12-11--12------|
 D|--12-------------|---------------11--|
 A|-----------------|-------------------|
 E|-----------------|-------------------|
 e|-----------------------------|-----------------------------|
 B|-----------------------------|-----------------------------|
 G|------14------14---------14--|------14------14-------------|
 D|--12------11------11h12------|--12------11------11h12--14--|
 A|-----------------------------|-----------------------------|
 E|-----------------------------|-----------------------------|
 e|-----------------|-------------------|
 B|----------12-----|-------------------|
 G|------14------12-|-12-12-11--12------|
 D|--12-------------|---------------11--|
 A|-----------------|-------------------|
 E|-----------------|-------------------|

[Verse] 
[D]All I know is that I [G]dreamed of you
[D]I somehow canā??t wipe you off m[Em]y Iris
[D]all I know is that [G]Iā??m lost in you
[D]like a bonedry log in your [Em]fire[G]
[A]but I see [Bm]things somewhat [A]different [Bm]now
G *
I swear to God, Iā??m gonna kill some day
[A]leave me [Bm]alone, yes [A]Iā??m goin[Bm]g home
[Em]I wonā??t bother yo[G]u no more
[Instrumental] 
 
 e|-----------------------------|-----------------------------|
 B|-----------------------------|-----------------------------|
 G|------14------14---------14--|------14------14-------------|
 D|--12------11------11h12------|--12------11------11h12--14--|
 A|-----------------------------|-----------------------------|
 E|-----------------------------|-----------------------------|
 e|-----------------|-------------------|
 B|----------12-----|-------------------|
 G|------14------12-|-12-12-11--12------|
 D|--12-------------|---------------11--|
 A|-----------------|-------------------|
 E|-----------------|-------------------|
 e|-----------------------------|-----------------------------|
 B|-----------------------------|-----------------------------|
 G|------14------14---------14--|------14------14-------------|
 D|--12------11------11h12------|--12------11------11h12--14--|
 A|-----------------------------|-----------------------------|
 E|-----------------------------|-----------------------------|
 e|-----------------|-------------------|
 B|----------12-----|-------------------|
 G|------14------12-|-12-12-11--12------|
 D|--12-------------|---------------11--|
 A|-----------------|-------------------|
 E|-----------------|-------------------|

[Bridge 1] 
D ~ D ~ D ~ D ~ D D D D
[Em] [G] [C] [C] [D]  
[Em] [G] [C] [D]  
[C] [Am]  
[Em] [D]  
[C] [D] [Em] [G]  
[C] [Am] [D]  
[Verse] 
[Em]....but if I [G]tried I could [Bm]make you come back
[Bm]and de-rail that train [A]from its dead-end track
Iā??[Em]d do anything to b[G]e rid of t[A]hat smil[D]e toni---[F]--ght,
[A#]tonight[C]
[D]toni-----[F]ght
[Instrumental] 
[A#] [C] [A#] [G] [C] 
[Verse] 
these [D]things I canā??t explain,Lord-
you [Em]left him hanging out on a limb
[D]all that time you knew it would [Em]make him spin
[D]I get so mad, frustrated and sick-
[G]I wish I knew just who or what to kick
[D]It used to be a personal thing
[Em]but that was way before it [G]started killing him
[A]but I see [Bm]things somewhat [A]different [Bm]now
G *
I swear to God, Iā??m gonna kill some day
[A]leave me [Bm]alone, yes [A]Iā??m goin[Bm]g home
[Em]I wonā??t bother yo[G]u no more
[A]but I see [Bm]things somewhat [A]different [G]now
[A]leave me [Bm]alone, yes [A]Iā??m goin[Bm]g home
[Instrumental] 
[Em] [G] [A] [D] [D] [D] [D] 
[Bridge] 
[A]but I see [Bm]things somewhat [A]different [Bm]now
G *
I swear to God, Iā??m gonna kill some day
[A]leave me [Bm]alone, yes [A]Iā??m goin[Bm]g home
[Outro] 
[G]  
[A] [Bm] [A] [Bm]  
[G]  
[A] [Bm] [A] [Bm]  
[G] 

Important: The song above is NOT stored on the Chordie server. The original song is hosted at www.azchords.com. Chordie works as a search engine and provides on-the-fly formatting. Chordie does not index songs against artists'/composers' will. To remove this song please click here.

Text color:
Chord color:
Chord grids: 
Font size:    
Page size: 

A A# Am Bm C D Em F G
Rate #1 of 1 versions

Jango Player

Login - add to songbook

SHARE PAGE  




You need to log in to post comments