Guitar Tabs, Chords and Lyrics
Server problems seems to be fixed. Chordie has been experiencing problems with songs disappearing. These issues now seems to be fixed, but still verifying the fix. If you find anything strange, please email admin@chordie.com.


Thunderbuck Ram  Mott the Hoople

Mick Ralphs.
A completely rockimg tune - great fun to play.
Intro:
 
 E|---------------------------11-|---------------------|---------------------|-----|
 B|-------------------11--13-----|--13--11------11-----|------11--13--11-----|-10--|
 G|--10---10--10--13-------------|----------13---------|--13--------------13-|-----|
 D|------------------------------|------------------13-|---------------------|-----|

Repeat x 4, missing out the final note on the fourth time
Intro Riff:
(Note: I'm really not sure about this bit, I know it's based around Fm but I can't figure out exactly what it is. Any suggestions? This sounds OK though)
 
 E|-----------------------------------|
 B|-----------------------------------|
 G|---10--10--10--10--10--8---10------|
 D|---10--10--10--10--10--8---10------| Repeat x 4.
 A|---8---8---8---8---8---8---8-------|
 E|-----------------------------------|

Verse:
[Fm]There may come a time whe[Eb]n sorrow's hard to find
Db Fm (riff)
And all those nursery rhymes will find a meaning
There's got to be a change, thoughts to reaarrange
Did it seem so strtange to try redeeming.
Then:
Db Eb Fm (Intro Riff) Repeat.
Then do the intro riff four times...
Verse:
Only time will show if the unrelenting blow
That's cast from down below will strike the ceiling
Life must still go onj - whetever's right or wrong
Realise what's gone was never healing
Then:
Db Eb Fm (Intro Riff) Repeat.
Fill in (same as intro):
 
 E|---------------------------11-|---------------------|---------------------|-----|
 B|-------------------11--13-----|--13--11------11-----|------11--13--11-----|-10--|
 G|--10---10--10--13-------------|----------13---------|--13--------------13-|-----|
 D|------------------------------|------------------13-|---------------------|-----|

Repeat four times, missing the final note on the fourth time.
Then there's some funny riff, that repeats iteself over and over, based around Fm.
Then:
Db Eb Fm (Intro Riff)
Db Eb Fm (Intro Riff)
Andrew Jones. 2001.

Important: The song above is NOT stored on the Chordie server. The original song is hosted at www.azchords.com. Chordie works as a search engine and provides on-the-fly formatting. Chordie does not index songs against artists'/composers' will. To remove this song please click here.

Text color:
Chord color:
Chord grids: 
Font size:    
Page size: 

Eb Fm
Rate #1 of 1 versions

Login - add to songbook

SHARE PAGE  



You need to log in to post comments