Guitar Tabs, Chords and Lyrics
Update 25:10. 13:00. Site is back up running again. Songbooks are recovered. Woring on getting search back up..


Seed  Mudvayne

By MuDvAyNe
Intro/Verse:
 
 C ----------------
 G ----------------
 E ----------------
 B ----------------
 F# ---2-2-2-2----
 B ---2-2-2-2----

Chorus:
^ U ^ ^ U ^ ^ U ^ ^ U ^
 
 C ----------------------------------------------
 G ----------------------------------------------
 E --9-9-9------9-9-9------9-9-9------9-9-9
 B --x-x-x------x-x-x------x-x-x------x-x-x
 F# --7-7-7------7-7-7------7-7-7------7-7-7
 B ----------------------------------------------

Bridge 1:
 
 C ----------------------------------------------------------------------------------------------------
 G ----------------------------------------------------------------------------------------------------
 E ----------------------------------------------------------------------------------------------------
 B ----------------------------------------------------------------------------------------------------
 F# ---0-3-5--0-5-6--0-8-12----3-0-3--0-5-6--8-12----3-0-3--0-5-6--8-12----3-0-3--0-5-6
 B ---0-3-5--0-5 6--0-8-12----3-0-3--0-5-6--8-12----3-0-3--0-5-6--8-12----3-0-3--0-5-6

Bridge 2:
 
 C -----------------------------------------------------------------------------------------------------------
 G -----------------------------------------------------------------------------------------------------------
 E -----------------------------------------------------------------------------------------------------------
 B -----------------------------------------------------------------------------------------------------------
 F# ---0-3-5--0-5-6--0-8-12----3-0-3--0-5-6--8-12----3-0-3--0-5-6--8-12----3-0-3--0-5-6--8-12
 B ---0-3-5--0-5 6--0-8-12----3-0-3--0-5-6--8-12----3-0-3--0-5-6--8-12----3-0-3--0-5-6--8-12
 C -------------------------------------------------------------------------------------------------------
 G -------------------------------------------------------------------------------------------------------
 E -------------------------------------------------------------------------------------------------------
 B -------------------------------------------------------------------------------------------------------
 F# ---3-0-3--0-5-6--0-8-12----3-0-3--0-5-6--8-12----3-0-3--0-5-6--8-12----3-0-3--0-5-6-8
 B ---3-0-3--0-5 6--0-8-12----3-0-3--0-5-6--8-12----3-0-3--0-5-6--8-12----3-0-3--0-5-6-8

Rhy. Fig. 1: (1st 3 measures) (Last measure)
 
 C ------------------------------------------------ C ---------------------------
 G ----------------------------------------------- G ---------------------------
 E ----------------------------------------------- E ---------------------------
 B ----------------------------------------------- B ---------------------------
 F# ---9^8^0--8^0--8^0--0--8^0--8^0------- F# -9^8^0--8^0--8??--0-8-9
 B ----------------------------------------------- B ---------------------------

Rhy. Fig. 2:
 
 C --------
 G --------
 E --------
 B --------

[F#] [--3-4-5]  
[B]Solo[--3-4-5]:
 
 C ---------------------------------------------------------------
 G ---------------------------12----------15----------12-12-12
 E --10-10-10-10-10-10------10-10------10-10------------
 B --------------------------------------------------------------- 4X
 F# ---------------------------------------------------------------
 B --------------------------------------------------------------
 C -------------------------------------------------------
 G --17-20-17---16-19-16---15-18-15---14-17-14
 E -------------------------------------------------------
 B ------------------------------------------------------- 4X
 F# -------------------------------------------------------
 B -------------------------------------------------------

Rhy. Fig. 3 (part 1): Rhy. Fig. 3 (part 2)
 
 C -------------------------------- -------------------------
 G -------------------------------- -------------------------
 E -------------------------------- -------------------------
 B -------------------------------- -------------------------
 F# -3-2-3-2-3-2-3---3-2-2-3-2 --3-2-------------------
 B -3-2-3-2-3-2-3---3-2-2-3-2 --3-2-------------------

Outro
 
 C ---------------------------------------------------------------
 G ---------------------------------------------------------------
 E ---------------------------------------------------------------
 B ---------------------------------------------------------------
 F# ---------------------------------------------------------------
 B -3-2-3-2-3-2-3-2-3-2-3-2-3-2-3-2-----0-3-5-0-5-6-0-8

Order:
-Intro 9X
-Chorus 4X
-Intro 4X
-Bridge 1X
-Intro 4X
-Chorus 4X
-Intro 9X
-Bridge 1X
-Rhy. Fig. 1 4X
-Rhy. Fig. 2 30X
-Solo
-Rhy. Fig. 3/1 6X
-Rhy. Fig 3/2 Bunch of times
-Verse 4X
-Chorus 4X
-Outro To the end

Important: The song above is NOT stored on the Chordie server. The original song is hosted at www.azchords.com. Chordie works as a search engine and provides on-the-fly formatting. Chordie does not index songs against artists'/composers' will. To remove this song please click here.

Text color:
Chord color:
Chord grids: 
Font size:    
Page size: 

B F#
Rate #1 of 2 versions

Jango Player

Login - add to songbook

SHARE PAGE  



You need to log in to post comments