Guitar Tabs, Chords and Lyrics
Major upgrade!! After one year development the new version of Chordie is now online! Please give feedback.


Plug In Baby  Muse

INTRO:
 
 e---------------------0-2/3-2-0-----------------0-----0-2-2/3-2-1-2-1-2-----------2-4/5-2/1-------|
 B---0-2---0-2-3-0-2-3-----------3-2-0-2-3-0-2-3---2-3-------------------3-------3------------3-2-3|
 G-3-----3-----------------------------------------------------------------2---2-------------------|
 D---------------------------------------------------------------------------0---------------------| (2 times)
 A-------------------------------------------------------------------------------------------------|
 E-------------------------------------------------------------------------------------------------|
 e---------------------0-2/3-2-0------|
 B---0-2---0-2-3-0-2-3-----------3-2-0|
 G-3-----3----------------------------|
 D------------------------------------|
 A------------------------------------|
 E------------------------------------|

I[G]'ve exposed your l[D]ies, ba[F#]by
The underneath is no [G]big surprise
Now it's [D]time for chang[F#]ing
And cleansing e[G]verything
To forget your [D]love[F#] [G]
My plug in baby [D]
[F#]Crucifies my [G]enemies
When I'm tired of giving [D] [F#] [G]
My plug in baby [D]
In un[F#]broken virgin re[G]alities
Is tired of li[D]ving[F#] [G]
REPEAT INTRO
[G]Don't con[D]fuse
Baby you're [F#]gonna lose
Your own [G]game [D]
Change me [F#]
Replace the [G]envying
To forget your [D]love[F#] [G]
My plug in baby [D]
[F#]Crucifies my ene[G]mies
When I'm tired of giv[D]ing [F#] [G]
My plug in baby [D]
In unb[F#]roken virgin rea[G]lities
I'm tired of livi[D]ng[F#] [G]
And I've seen your lo[D]ving
But mine is g[F#]one
And I've been in t[G]rouble[D] [F#]
REPEAT INTRO

Important: The song above is NOT stored on the Chordie server. The original song is hosted at www.azchords.com. Chordie works as a search engine and provides on-the-fly formatting. Chordie does not index songs against artists'/composers' will. To remove this song please click here.

Text color:
Chord color:
Chord grids: 
Font size:    
Page size: 

D F# G
Rate #2 of 11 versions

Jango Player

Login - add to songbook

SHARE PAGE  




You need to log in to post comments