Guitar Tabs, Chords and Lyrics
Update 25:10. 13:00. Site is back up running again. Songbooks are recovered. Woring on getting search back up..


Your Great Name  Natalie Grant

Intro
 
 ------------10---------------10------------10---------------8--|
 ---------------------------------------------------------------|
 -12--10--12------12--10--12-----12--10--12------12--10--12-----|
 ---------------------------------------------------------------|
 ---------------------------------------------------------------|
 ---------------------------------------------------------------|

Repeat throughout Verse I
Verse I
dm gm gm Bb F
Lost are saved; find their way; at the sound of your great name
dm gm gm Bb F
All condemned; feel no shame, at the sound of your great name
dm gm gm Bb F
Every fear; has no place; at the sound of your great name
dm gm gm Bb gm F
The enemy; he has to leave; at the sound of your great name
Chorus
gm Bb F gm Bb F
Jesus, Worthy is the Lamb that was slain for us
F gm gm Bb
Son of God and man, You are high and lifted up
gm F gm
that all the world will praise your great name
small guitar riff
 
 ------------10---------------10------------10---------------8--|
 ---------------------------------------------------------------|
 -12--10--12------12--10--12-----12--10--12------12--10--12-----|
 ---------------------------------------------------------------|
 ---------------------------------------------------------------|
 ---------------------------------------------------------------|

Verse II
dm gm gm Bb F
All the weak; find their strength; at the sound of your great name
dm gm gm Bb F
Hungry souls; receive grace; at the sound of your great name
dm gm gm Bb F
The fatherless; they find their rest; at the sound of your great name
dm gm gm Bb F
Sick are healed; and the dead are raised; at the sound of your great name
Chorus
Bridge
F gm Bb F
Redeemer, My Healer, You are mighty
F gm Bb F
My savior, Defender, You are My King
F gm Bb F
Redeemer, My Healer, You are mighty
F gm Bb F
My savior, Defender, You are My King
[Gm]Jesus
the name of [Bb]Jesu[F]s
gm Bb
You are high and lifted up
gm F gm
And the world will praise your great name
Chorus
Bb F gm Bb F
Your Great Na-a-a-ame
Bb F gm Bb F
Your Great Na-a-a-ame
Chorus

Important: The song above is NOT stored on the Chordie server. The original song is hosted at www.azchords.com. Chordie works as a search engine and provides on-the-fly formatting. Chordie does not index songs against artists'/composers' will. To remove this song please click here.

Text color:
Chord color:
Chord grids: 
Font size:    
Page size: 

Bb F Gm
Rate #10 of 12 versions

Login - add to songbook

SHARE PAGE  




You need to log in to post comments