Guitar Tabs, Chords and Lyrics
Server problems seems to be fixed. Chordie has been experiencing problems with songs disappearing. These issues now seems to be fixed, but still verifying the fix. If you find anything strange, please email admin@chordie.com.


Torn  Natalie Imbruglia

Natalie Imbruglia - Torn
Chords Used
Std. tuning
No capo
Am : X02210
Bb : X13331
Bb7 : x13131
C : X32010
Dm : XX0231
F : 133211
Gm : 355333
Intro: F Bb F Gm
Verse 1:
 
 --------

[F]I thought I saw a man brought to l[Am]ife
He was warm, he came around like he was [Bb]Dignified
He showed me what it was to cry.
[F]Well you couldn't be that man, I ador[Am]ed
You don't seem to know, seem to care, what your [Bb]heart is for
But I don'tknow him anymore
Pre chorus 1:
 
 -------------

There's n[Dm]othing where he use to lie,
[C]My conversation has run dry
[Am]That's what's going on...
[C]Nothing's fine
I'm to[F]rn
Chorus 1:
 
 ---------

[F]I'm all out of fa[C]ith, this is how i f[Dm]eel
I'm cold and I am sh[Bb7]amed, lying naked on the f[F]loor.
Illusion never ch[C]anged into something [Dm]real
I'm wide awake and [Bb7]I can see the perfect sky is t[F]orn,
You're a little l[C]ate, I'm already to[Dm]rn[C] [Bb7]
Verse 2:
 
 --------

[F]So i guess the fortuine teller's r[Am]ight
I should have seen just what was there and not some h[Bb7]oly light
But you crawl beneathmy veins and now
Pre chorus 2:
 
 -------------

I d[Dm]on't care, I have no luck
[C]I don't miss it all that much
[Am]There's just so many things,
[C]That I can't touch
I'm tor[F]n
Chorus 2:
 
 ---------

[F]I'm all out of fa[C]ith, this is how i f[Dm]eel
I'm cold and I am sh[Bb7]amed, lying naked on the f[F]loor.
Illusion never ch[C]anged into something [Dm]real
I'm wide awake and [Bb7]I can see the perfect sky is t[F]orn,
I'm all out of fai[C]th, This is how i f[Dm]eel
I'm cold and I am sha[Bb7]med, bound and broken on the floor[F]
You're a little la[C]te, I'm already t[Dm]orn[C] [Bb7]
Outro:
 
 ------

[Dm]Torn..... [C] Ohhhh
Outro/Solo
 
 ----------
 E)----------------|--10\5~~~~~~~~--|----------------|--10\5~~~~~~~---|
 B)--6/13~~~~~~~---|----------------|--6/13~~~~~~~---|----------------|
 G)----------------|----------------|----------------|----------------|
 D)----------------|----------------|----------------|----------------|
 A)----------------|----------------|----------------|----------------|
 E)----------------|----------------|----------------|----------------|
 E)----------------|--10/13\10~\5~~-|----------------|--10\5~~~~~~~---|
 B)--6/13~~~~~~~---|----------------|--6/13~~~~~~~---|----------------|
 G)----------------|----------------|----------------|----------------|
 D)----------------|----------------|----------------|----------------|
 A)----------------|----------------|----------------|----------------|
 E)----------------|----------------|----------------|----------------|


Important: The song above is NOT stored on the Chordie server. The original song is hosted at www.azchords.com. Chordie works as a search engine and provides on-the-fly formatting. Chordie does not index songs against artists'/composers' will. To remove this song please click here.

Text color:
Chord color:
Chord grids: 
Font size:    
Page size: 

Am Bb Bb7 C Dm F
Rate #1 of 20 versions

Jango Player

Login - add to songbook

SHARE PAGE  




You need to log in to post comments