Guitar Tabs, Chords and Lyrics
Update 25:10. 13:00. Site is back up running again. Songbooks are recovered. Woring on getting search back up..


Cade la pioggia  Negramaro

INTRO:
 
 e| ------------------------|
 B|--9-----9----------------|
 G|-----9------9------------|
 D|-------------------------|
 A|-------------------------|
 E|-------------------------|

Part 1
 
 e|--------------------------------------­----------------------------|
 B|----------5-----------------5---------­-----5-----------------5----|
 G|------6----------------4-------4------­4------4---------6----------|
 D|---7---------------6---------------6--­--------------7-------------|
 A|--------------------------------------­----------------------------|
 E|--------------------------------------­----------------------------|

Part 2
 
 e|----------4----------------------------4----------------|
 B|-------------------------5----------------------------5-|
 G|-----5-------------4--------------5-------------4-------|
 D|-6-------------6--------------6-------------6-----------|
 A|--------------------------------------------------------|
 E|--------------------------------------------------------|

Bridge & Final Part (Slide)
 
 e|-------------------------|
 B|-------------------------|
 G|-------9-----9-----9-----| ( 13, 16, 14, 17, 16, 11)
 D|-------------------------|
 A|---7------7-----7--------| ( 11, 14, 12, 15, 14, 9)
 E|-------------------------|

VERSE :
A E _
Cade la pioggia e tutto lava |
|
F#m C#m |
cancella le mie stesse ossa |
|
A E |--- Part 1
Cade la pioggia e tutto casca |
|
F#m C#m |
e scivolo sull??acqua sporca _|
G# C#m _
Si, ma a te che importa poi |
|
G# A |--- Part 2
rinfrescati se vuoi _|
questa mia stessa pioggia sporca[Am]
CHORUS :
[E]Dimmi a che serve restare
[G#m]lontano in silenzio a guardare
la n[C#m]ostra passione che [A]muore in un angolo e[Am]
[E]non sa di noi
[Am]non sa di n[E]oi
non sa[Am] di noi
"Bridge"
VERSE :
"Part 1"
[A]Cade la pioggia[E] e tutto tace
[F#m]lo vedi sento anch[C#m]??io la pace
[A]Cade la pioggia e[E] questa pace
[F#m]è solo acqua sporca[C#m] e brace
"Part 2"
[G#]c??è aria fredd[C#m]a intorno a noi
[G#]abbracciami se v[A]uoi
questa mia stessa pioggia spo[Am]rca
CHORUS :
[E]Dimmi a che serve restare
[G#m]lontano in silenzio a guardare
[C#m]la nostra passione che [A]muore in un angolo
[E]E dimmi a che serve sperare
[G#m]se piove e non senti dolore
[C#m]come questa mia pelle [A]che muore
che [Am]cambia colore che cambia l??o[B]dore
_
Tu dimmi poi che senso ha ora piangere |
piangere addosso a me |
che non so difendere questa mia brutta pelle |
così sporca |-- Part without Music
tanto sporca |
com'è sporca |
questa pioggia sporca _|
[F#m]Si ma tu non difendermi adesso
[C#m]tu non difendermi adesso
[A]tu non difendermi
piuttosto torna a[B] fango si ma torna
CHORUS :
[E]E dimmi che serve restare
[G#m]lontano in silenzio a guardare
[C#m]la nos[A]tra passione non muore
[A]ma cambia colore
[E]tu fammi sperare
[G#m]che piove e senti pure l??odore
[C#m]di quest[A]a mia pelle che è bianca
[Am]e non vuole il colore
[Am]non vuole il colore
no..
no..

Important: The song above is NOT stored on the Chordie server. The original song is hosted at www.azchords.com. Chordie works as a search engine and provides on-the-fly formatting. Chordie does not index songs against artists'/composers' will. To remove this song please click here.

Text color:
Chord color:
Chord grids: 
Font size:    
Page size: 

A Am B C#m E F#m G# G#m
Rate #1 of 2 versions

Login - add to songbook

SHARE PAGE  




You need to log in to post comments