Guitar Tabs, Chords and Lyrics
Server problems seems to be fixed. Chordie has been experiencing problems with songs disappearing. These issues now seems to be fixed, but still verifying the fix. If you find anything strange, please email admin@chordie.com.


Albuquerque  Neil Young

Originally tabbed for The Neil Young Song Book Project www.songx.se by:
John Rosenfelder (earbender[at]earthlink.net)
Wolfgang Deimel (wolfgang[at]mailer.kjp.uni-marburg.de)
Alan DerKazarian (aderkazarian[at]mbln1.mbln.lib.ma.us)
This gives his first chord played a weird Em/D sound.
Believe it or not, I'm pretty sure the first Em bar of the song has five beats to it (5/4,
maybe 5/8), and that the second D bar has three beats (3/4?).
This repeats for the third and fourth bars but then rights itself to 4/4 time
for the rest of the song.
INTRO TAB:
[Em] [D] [Em] [D]  
 
 e|-----0-----0--0-|-------2------|-----0----0--0---|-----2--
 B|-----0-----0--0-|-------3------|-----0----0--0---|-----3--
 G|-----0-----0--0-|-------2------|-----0----0--0---|-----2--
 D|-------0h2-----2/4------0------|-------0h2----2/4|-----0--
 A|-0h2------------|-------0------|-0h2--------2----|-----0--
 D|------------0---|---0----------|-----------------|-0------

[Em] [G] [A] [A]  
 
 e|-------------0--|----------3---|--------0--------|0-------
 B|-------------0--|----------0---|--------2--------|2-------
 G|-------------0--|-------0--0---|--------2--------|2-------
 D|------0--2------|-2--4---------|---0----2----0---|--------
 A|-0h2------------|--------------|-2---4----4------|--------
 D|----------------|--------------|-----------------|--------

[G] [Em] [D] [D]  
 
 e|----3-----3-----|-----0--------|------2----------|------2-
 B|----0-----0-----|-----0--------|------3----------|------3-
 G|-0--0--0--0-----|-----0--------|------2----------|------2-
 D|----0-----------|-----2--2/4---|------0-------0--|------0-
 A|----------------|--2--2--------|------0--0h2-----|------0-
 D|----------------|--------------|-0---------------|--0-----

Well they [Em]say that Santa [D]Fe
it's [Em]less than ninety [D]miles away
and i've [Em]got time to [G]roll a number and r[A]ent a car
Oh [G]Al[aaaalEm]ll - bu[D]querque
I've [Em]been flying [D]down the road
and I've [Em]been starving [D]to be alone
Independent [Em]from the [G]scene that [A]I've known
Oh [G]Al[aaaalEm]ll - bu[D]querque
Instrumental & harmonica solo and pedal steel solo
So I'll [Em]stop when I [D]can
Find [Em]some fried eggs and [D]country ham
Em. G. D
I'll find somewhere where they don't care who I am.
Oh [G]Al[aaaalEm]ll - bu[D]querque
Repeat last line a few times and fade

Important: The song above is NOT stored on the Chordie server. The original song is hosted at www.azchords.com. Chordie works as a search engine and provides on-the-fly formatting. Chordie does not index songs against artists'/composers' will. To remove this song please click here.

Text color:
Chord color:
Chord grids: 
Font size:    
Page size: 

A D Em G
Rate #1 of 8 versions

Jango Player

Login - add to songbook

SHARE PAGE  




You need to log in to post comments