Guitar Tabs, Chords and Lyrics
Update 25:10. 13:00. Site is back up running again. Songbooks are recovered. Woring on getting search back up..


Drive Back  Neil Young

intro
[A]  
 
 e|----------------------------------|----------------------------------------|
 B|----------------------------------|----------------------------------------|
 G|---5---5-5------------------------|---------5---5-5------------------------|
 D|-7---7-----7??(7)-5-------5--------|---5-6-7---7-----7??(7)-5-------5--------|
 A|-------------------7-6-5---7-6-5~-|-7-----------------------7-6-5---7-6-5~-|
 E|----------------------------------|----------------------------------------|

This passage from later on in the song and is simple to play but very effective
if played with a second guitar playing the chords
W[A]hat you told me... [G]When I showed you... [Fmaj7]in the morning... l[Em]et me know you'll
 
 e|-12~~~~~~~~--------------------------12~~~~~~~~--------------------------------|
 B|--------------13-12~~~~~~~~--------13----------------13-12~~~~~~~~-------------|
 G|-------------------------------------------------------------------------------|
 D|-------------------------------------------------------------------------------|
 A|-------------------------------------------------------------------------------|
 E|-------------------------------------------------------------------------------|

This passage is from the chorus
[Am]Drive back to your old town
 
 e|-------------------------5-----------------|
 B|---------------------------8-5-----8-5-----|
 G|------------------------------8-7-----8-7--|
 D|-------------------------------------------|
 A|-------------------------------------------|
 E|-------------------------------------------|


Important: The song above is NOT stored on the Chordie server. The original song is hosted at www.azchords.com. Chordie works as a search engine and provides on-the-fly formatting. Chordie does not index songs against artists'/composers' will. To remove this song please click here.

Text color:
Chord color:
Chord grids: 
Font size:    
Page size: 

A Am Em Fmaj7 G
Rate #2 of 3 versions

Jango Player

Login - add to songbook

SHARE PAGE  




You need to log in to post comments