Guitar Tabs, Chords and Lyrics
Major upgrade!! After one year development the new version of Chordie is now online! Please give feedback.


Heart of Gold  Neil Young

Intro:
[Em7] [Em7] [Em7] [Em7] [Em7] [Em7] [D] [D] [Em]  
 
 e|--------0---0---0---0---0---0-|-2---2---0-------------|
 B|--------3---3---3---3---3---3-|-3---3---0-------------|
 G|--------0---0---0---0---0---0-|-2---2---0-------------| x 2
 D|--------2---2---2---2---2---2-|-0---0---2--------0----|
 A|--------2---2---2---2---2---2-|---------2---0-h2---2--|
 E|0-------0---0---0---0---0---0-|---------0-------------|

Extended intro during harmonica solo:
[Em] [Em] [C] [C] [D] [D] [G] [G]  
 
 e|---0---0---0---0---|-2--2----3---3--|
 B|---0---0---1---1---|-3--3----0---0--|
 G|---0---0---0---0---|-2--2----0---0--| x 3 Then play Intro again one time
 D|---2---2---2---2---|-0--0----0---0--|
 A|---2---2---3---3---|---------2---2--|
 E|---0---0---0---0---|---------3---3--|

1st verse:
[Em]'I want to[C] live, I w[D]ant to [G]give'
[Em]'I've been a[C] miner for a[D] heart of[G] gold'
[Em]'It's these e[C]xpressions[D] I never[G] give'
[Em]'That keep me searching for a[G] heart of gold'
[C] [C] 'An[C]d I'[C]m getting old' Then play the bass run below
[Em]'Keep me searching for a[G] heart of gold'
[C] [C] 'An[C]d I'[C]m getting old' Play the bass run again
Bass run:
[G]  
 
 e|-----------3------------------|
 B|-----------0------------------|
 G|-----------0------------------|
 D|-----------0------------------|
 A|--3--2--0--2------------------|
 E|-----------3------------------|

Harmonica solo:
Play extended intro again during harmonica solo:
[Em] [Em] [C] [C] [D] [D] [G] [G]  
 
 e|---0---0---0---0---|-2--2----3---3--|
 B|---0---0---1---1---|-3--3----0---0--|
 G|---0---0---0---0---|-2--2----0---0--| x 3 Then play Intro again one time
 D|---2---2---2---2---|-0--0----0---0--|
 A|---2---2---3---3---|---------2---2--|
 E|---0---0---0---0---|---------3---3--|

2nd verse:
[Em]'I've been to[C] Hollywood,[D] I've been to[G] Redwood'
[Em]'I've crossed the[C] ocean for a[D] heart of[G] gold'
[Em]'I've been in[C] my mind,[D] it's such a[G] fine line'
[Em]'That keep me searching for a[G] heart of gold'
[C] [C] 'An[C]d I'[C]m getting old' Then play the bass run again
[Em]'Keep me searching for a[G] heart of gold'
[C] [C] 'An[C]d I'[C]m getting old' Then play the bass run again
Harmonica solo:
Play extended intro again during harmonica solo:
[Em] [Em] [C] [C] [D] [D] [G] [G]  
 
 e|---0---0---0---0---|-2--2----3---3--|
 B|---0---0---1---1---|-3--3----0---0--|
 G|---0---0---0---0---|-2--2----0---0--| x 3
 D|---2---2---2---2---|-0--0----0---0--|
 A|---2---2---3---3---|---------2---2--|
 E|---0---0---0---0---|---------3---3--|

Last verse:
[Em]Keep me searching for a [D]heart of [Em]gold
You [Em]keep me searching and I'm [D]growing [Em]old
[Em]Keep me searching for a [D]heart of [Em]gold
[Em]I've been a miner for a [G]heart of gold
Ending:
C C C C Then:
[G]  
 
 e|-----------3------------------|
 B|-----------0------------------|
 G|-----------0------------------|
 D|-----------0------------------|
 A|--3--2--0--2------------------|
 E|-----------3------------------|


Important: The song above is NOT stored on the Chordie server. The original song is hosted at www.azchords.com. Chordie works as a search engine and provides on-the-fly formatting. Chordie does not index songs against artists'/composers' will. To remove this song please click here.

Text color:
Chord color:
Chord grids: 
Font size:    
Page size: 

C D Em Em7 G
Rate #1 of 13 versions

Jango Player

Login - add to songbook

SHARE PAGE  



You need to log in to post comments