Guitar Tabs, Chords and Lyrics
Major upgrade!! After one year development the new version of Chordie is now online! Please give feedback.


Like a Hurricane  Neil Young

heres the entire song almost completly correct.
INTRO:
[Am] [G]  
 
 ||-12-12----10-\8-----7|------8-------10------/10----8----7--7---7---|
 ||---------------------|----------------------|----------------------|
 ||/9------7-----5--4---|---/5----5/7------7---|---\5------4----------|
 ||---------------------|----------------------|----------------------|
 ||---------------------|----------------------|----------------------|
 ||---------------------|----------------------|----------------------|

[F]  
 
 |-7-----/8---8--8/10-\-8---8----7----5----5---|----------7------8\---|
 |----------------------|----------------------|----------------------|
 |-4---4----5-------7---5-----5-\4--2----2-----|2------4------5---\---|
 |----------------------|----------------------|----------------------|
 |----------------------|----------------------|----------------------|
 |----------------------|----------------------|----------------------|

[Em] [G]  
 
 |-----------0--0--0--0-|----------3----3--3---|
 |-----------0--0--0--0-|----------3----3--3---|
 |-----------0--0--0--0-|-----4----4----4--4---|
 |-----------2--2--2--2-|-5---5----------------|
 |2----2-----2--2--2--2-|-5--------------------|
 |0----0-----0----------|-3--------------------|

VERSE:
[Am]Once I thought I saw you in a [G]crowded, hazy bar,
[Fmaj7]Dancing on the light from star to [Em7]star.[G]
[Am]Far across the moon beams, I [G]know that's who you are.
I [Fmaj7]saw your brown eyes turning once to [Em7]fire.[G]
CHORUS:
[C]You [G]are [F]like a hurri[G]cane: [C]there's [G]calm [F]in your [G]eye.
[C]And [G]I'm [F]getting blown a[G]way.
[Fmaj7]To somewhere safer where the feeling stays,
[Fmaj7]I wanna love you but I'm getting blown away.
SOLO I:
 
 |----------------------|----------------------|----------------------|
 |----------------------|----------------------|----------------------|
 |-/9---7--------7------|----------------/9----|-7------5--4----5---7-|
 |--------10--------7---|-------9---10---------|----------------------|
 |----------------------|----------------------|----------------------|
 |----------------------|----------------------|----------------------|
 |----------------------|----------------------|----------------------|
 |----------------------|----------------------|----------------------|
 |-------------------7--|/9--9\-7--7--5--------|-------4--5-----/9----|
 |-----------------5----|----------------7---7-|----------------------|
 |----------------------|----------------------|----------------------|
 |----------------------|----------------------|----------------------|
 |--------0-----------0-|--------------x-x-x---|
 |-3------------3--3----|--------------x-x-x---|
 |-0--------------------|-0--0--0------x-x-x---|
 |-2--------------------|--------------x-x-x---|
 |-2--------------------|--------------x-x-x---|
 |-0--------------------|--------------x-x-x---|

VERSE:
I am just a dreamer, but you are just a dream,
And you could have been anyone to me.
Before that moment you touched my lips,
That perfect feeling when time just slips
Away between us and our foggy trips.
CHORUS:
You are like a hurricane: there's calm in your eye.
And I'm getting blown away.
To somewhere safer where the feeling stays,
 
 |-------------------1====--------1----x---1--0-|12--12--12--12--12--12|
 |------------0------1====--------1----x---1----|----------------------|
 |------------2--x---2====--------2----x---2----|---9--9---9---9---9---9
 |------------3--x---3====--------3----x---3----|----------------------|
 |------------3--0---3====-------------x--------|----------------------|
 |------------1------1====-------------x--------|----------------------|

I wanna love you but I'm getting blown away.
 
 |12--12--12--12--12--12|12--12--12--12--12--12|12--12--12--12--12--12|
 |----------------------|----------------------|----------------------|
 |---9--9---9---9---9---9---9--9---9---9---9---9---9--9---9---9---9---9
 |----------------------|----------------------|----------------------|
 |----------------------|----------------------|----------------------|
 |----------------------|----------------------|----------------------|
 |12--12--12--12--12--12|12--12--12--12--12--12|12--12--12--12--12--12|
 |----------------------|----------------------|----------------------|
 |---9--9---9---9---9---9---9--9---9---9---9---9---9--9---9---9---9---9
 |----------------------|----------------------|----------------------|
 |----------------------|----------------------|----------------------|
 |----------------------|----------------------|----------------------|

SOLO II:
[Am]  
 
 |-12-12-12----------------|---------------------------------15--|
 |----------------13-13---15-13-13--15--15--13----15-------------|
 |---9--9--9----12-14-14-14-14-14-14--14--14------14-17_16_14----|
 |-----------/14-----------|-------------------------------------|
 |-------------------------|-------------------------------------|
 |-------------------------|-------------------------------------|

[G]  
 
 |12--12---------------------------|---------------------------------|
 |--15--15-13---13--15-13_12_10_13_12_10-12-13-12-10/15-15--15--13-14|
 |-----------14---14---------------|---------------------------------|
 |---------------------------------|---------------------------------|
 |---------------------------------|---------------------------------|
 |---------------------------------|---------------------------------|

[F]  
 
 |-------------------12-15---------|---------------------------------|
 12----12---12-13-15-------12-13-12|15-13--12-13-12----12--13-12-15--|
 |-12-14-12------------------------|----------------14---------------|
 |---------------------------------|---------------------------------|
 |---------------------------------|---------------------------------|
 |---------------------------------|---------------------------------|

[Em]  
 
 |-----------------15---x----------|-15--15^^---15^^---15^^---15^^---|
 |--17-----15_17_15-----x--17--15--|---------------------------------|
 |----------------------x----------|---------------------------------|
 |---------------------------------|---------------------------------|
 |---------------------------------|---------------------------------|
 |---------------------------------|---------------------------------|

[G] [Am]  
 
 |15^--15^--15^--15^--15^\----15---|---12--\10-------\8-8----7--7----|
 |---------------------------------|---------------------------------|
 |---------------------------------|-9------\7-----\5---5------/4----|
 |---------------------------------|---------------------------------|
 |---------------------------------|---------------------------------|
 |---------------------------------|---------------------------------|

[G]  
 
 |----------8-----------|----10------8------7--7--5--5------7-----7---|
 |----------------------|----------------------|----------------------|
 |------//5------5------|-/7------\5--\4-4-----|-2--2----4------------|
 |----------------------|----------------------|----------------------|
 |----------------------|----------------------|----------------------|
 |----------------------|----------------------|----------------------|

[F] [Em]  
 
 |---8---8----/10--10---|/12-12--12--12-----15-|--15-\12-12---15-12--12
 |----------------------|----------------------|----------------------|
 |/5--/5-----5/7-7----\4|---9------9----/12----|12-12\9--9--12---9----|
 |----------------------|----------------------|----------------------|
 |----------------------|----------------------|----------------------|
 |----------------------|----------------------|----------------------|

[G] [Am]  
 
 |-15\12----------------|-------------15^^^---15^^----15^^---15^^---15^
 |------------13--13-15-13-15^^^-15-13---------|----------------------|
 |-12\9--1214---14------|----------------------|----------------------|
 |----------------------|----------------------|----------------------|
 |----------------------|----------------------|----------------------|
 |----------------------|----------------------|----------------------|

[G] [F]  
 
 |--15^^-15^^-------15--|----------------------|---------15^^^^^(15)--|
 |----------------17--17|171817-17--15--15-13-15-15----13-------------|
 |----------------------|----------------------|-------14-------------|
 |----------------------|----------------------|----------------------|
 |----------------------|----------------------|----------------------|
 |----------------------|----------------------|----------------------|

[Em] [G]  
 
 |-12--12---13-13----12-13-12-12----10-10-10-10-10--------------------|
 |----------------------|---------13^13^13^13^13^--15-15-15-15--15----|
 |9--9-----10-10-10-9---10-9---10--------------|--12-12-12-12-12--12--|
 |----------------------|----------------------|-------------------1414
 |----------------------|----------------------|----------------------|
 |----------------------|----------------------|----------------------|

H P H P H P H H P H P P H P H
[Am] [G]  
 
 |----------------------|----------------------|----12----------------|
 |-------1315131513151315^^-13-15-----131513151315^^-----13-1513151315^
 121414-----------------|-------12/14----------|------1214------------|
 |----------------------|----------------------|----------------------|
 |----------------------|----------------------|----------------------|
 |----------------------|----------------------|----------------------|

P H P H P H P H
[F]  
 
 |--12------------------|--12------------------|-12----------------15-|
 15^^-----13-1513151315^15^^-----13-1513151315^------------13-15^-----|
 |---1214---------------|----1214--------------|------12-14-----------|
 |----------------------|----------------------|----------------------|
 |----------------------|----------------------|----------------------|
 |----------------------|----------------------|----------------------|
 |---15-----15^^---15^^-|--15----15^---15^---15^--15^-/17---15^---/17-|
 |----------------------|-----17---------------|----------------------|
 |----------------------|----------------------|----------------------|
 |----------------------|----------------------|----------------------|
 |----------------------|----------------------|----------------------|
 |----------------------|----------------------|----------------------|

[G]  
 
 |-15^------15^----x-x--|15^-(15)-15-----20^^--|---20^^----20^^----20-|
 |-----------------x-x--|-----------17---------|----------------------|
 |----------------------|----------------------|----------------------|
 |----------------------|----------------------|----------------------|
 |----------------------|----------------------|----------------------|
 |----------------------|----------------------|----------------------|

[F] [Em]  
 
 |20---20-20----19---17-|---19-------------12--|---12-----10----8--7--|
 |----------------------|----------------------|----------------------|
 |----------------------|----------------------|---------7----5-------|
 |----------------------|----------------------|----------------------|
 |----------------------|----------------------|----------------------|
 |----------------------|----------------------|----------------------|

[G] [Am]  
 
 |--8----10-----7-----7-|--12------10---8------|----8---7----------7//|
 |----------------------|----------------------|----------------------|
 |-----------------4----|-9-------7---5---4----|--5---4----------4-4//|
 |----------------------|----------------------|----------------------|
 |----------------------|----------------------|----------------------|
 |----------------------|----------------------|----------------------|

[G] [F]  
 
 |10----8--7\5--5--5/7--|-7\5------5---/7---7--|-8----7--5\3--5---5---|
 |----------------------|----------------------|----------------------|
 |7---5--5\4\2---2---4--|---2------2-2----4--5-|----4--4\2\0----2---2-|
 |----------------------|----------------------|----------------------|
 |----------------------|----------------------|----------------------|
 |----------------------|----------------------|----------------------|

[Em] [G]  
 
 |--5---7--5\\3----3--5-|3-0------(0)----------|-------3--------------|
 |----------------------|----------0==============-----3----3----3----|
 |2-/4-----2\\0--0--2--0-----------0==============-----4----4----4----|
 |----------------------|--2-------2==============-----5----5----5----|
 |----------------------|----------------------|-------5----5----5----|
 |----------------------|----------------------|-------3----3----3----|

VERSE:
You are just a dreamer, and I am just a dream,
And you could have been anyone to me.
Before that moment you touched my lips,
That perfect feeling when time just slips
Away between us and our foggy trips.
CHORUS:
You are like a hurricane: there's calm in your eye.
And I'm getting blown away.
To somewhere safer where the feeling stays,
I wanna love ya but I'm gettin blown away...
SOLO III:
[Am] [G]  
 
 |-12-12-12-12-12-12-12-|12-12-12-12-12---10-10|-10-10-10-10-------10-|
 |----------------------|----------------------|----------------------|
 |9--9--9--9--9--9--9--9|--9--9--9--9----7--7--|7--7--7--7--7---------|
 |----------------------|----------------------|----------------------|
 |----------------------|----------------------|----------------------|
 |----------------------|----------------------|----------------------|

[F]  
 
 |-10-10-10---12------8-|--8--8--8--8--8--8--8-|-8--8--8--8--8---12---7
 |----------------------|----------------------|----------------------|
 |7--7--7--7/9-----/5---|-5--5--5--5--5--5--5--5---5--5--5--5--5/9--4-|
 |----------------------|----------------------|----------------------|
 |----------------------|----------------------|----------------------|
 |----------------------|----------------------|----------------------|

Em G Am HPHPHPHP
 
 |----------------------|----------------------|----------------------|
 |-----12-12-------10---|----8-----7-----------|------7---------------|
 |----9--9-------7------|--9-----7--/11---9_11-9--------10-9-75757595-|
 |----------------------|----------------------|----------------------|
 |----------------------|----------------------|----------------------|
 |----------------------|----------------------|----------------------|

G H H P P
 
 |----------------------|----------------------|------------15-14-15-15
 |-------------------13-15131513-151315131513131513151312-------------|
 |---7------------------|----------------------|---------12--12-12-12 12
 |10-----9-7-9----------|----------------------|----------------------|
 |----------------------|----------------------|----------------------|
 |---------------10-----|----------------------|----------------------|

[F] [Em]  
 
 |15---12---12/13\12----|---------15----12-12-13-12-------------------|
 |-------15---------1513-15---13---------15-15-|--1513--12--------3-0-|
 |----------------------14------14-------------|-----14--12-12-12-----|
 |----------------------|----------------------|----------------------|
 |----------------------|----------------------|----------------------|
 |----------------------|----------------------|----------------------|

G Am (trill)
 
 |----7-10--10-10--7---7|-15--1213~~12---------|-----------15^^--(15)-|
 |---8-----8--8-----8---|--------------15-13---|15----13-------------13
 |0-7----------------9--|--------------------14|--------14------------|
 |----------------------|----------------------|------- (0)-----------|
 |----------------------|----------------------|----------------------|
 |----------------------|----------------------|----------------------|

G F H P
 
 |----------------------|----------------------|----------------------|
 |----------------------|------/10--10----/10--|---------------------10
 |14=14==-x-1614==-1412-|1414----/14--14----/14|-12-10--9_12-9--------|
 |--------x------------14----------------------|----------------12_10-|
 |----------------------|----------------------|----------------------|
 |----------------------|----------------------|----------------------|

[Em] [G]  
 
 |----------------------|----------------------|----------------------|
 |----------------------|----------------------|----------------------|
 |-/14--12-------12141214^-14--14-14^14^--14-14|-14-14-14-14^^----(14)|
 |-------15121414-------|----------------------|----------------------|
 |----------------------|----------------------|----------------------|
 |----------------------|----------------------|----------------------|

[Am] [G] [B]  
 
 |----------------------|----------------------|----------------------|
 |----------------------|----------------------|----------------------|
 |-----------121412-----|----------121412-14^-14-12--------------12---|
 |14-14------------1412-|141414141414----------|---141212--12_14------|
 |----------------------|----------------------|----------------------|
 |----------------------|----------------------|----------------------|

F P (trill) P H
 
 |----------------------|----------------------|----------------------|
 |----------------------|----------------------|----------------------|
 |12-14-12------12-1212-|1412~~~~~~~~~~~~~~~~~~~~~~~14^^^--14_12--12_14
 |--------12-14---------|----------------------|----------x-----x-----|
 |----------------------|----------------------|----------x-----x-----|
 |----------------------|----------------------|----------x-----x-----|

[Em] [G] [Am]  
 
 |----------------------|----------------------|----------------------|
 |----------------------|----------------------|---13-15--13^^---13---|
 |--------121412-----1214-12----12-14---14--14-|-14-------------------|
 |-------------141214---|--1412----------------|----------------------|
 |----------------------|----------------------|----------------------|
 |----------------------|----------------------|----------------------|

H P H P P G
 
 |----------------------|----------------------|----------------------|
 |121312----------------|----------------------|----------------------|
 |------14--14161412-1412^^-14^^---141214-12/14|-14---14-16-14---14---|
 |----------------------|----------------------|----------------------|
 |----------------------|----------------------|----------------------|
 |----------------------|----------------------|----------------------|

[F] [Em]  
 
 |----------------------|----------------------|----------------------|
 |-----------12----13---|-13----13--13--13---13|12-/15---------15--15-|
 |121414/\14------------|----------------------|----------------------|
 |----------------------|----------------------|----------------------|
 |----------------------|----------------------|----------------------|
 |----------------------|----------------------|----------------------|

[G] [Am]  
 
 |----------------------|-19-19-19-19-19-19-19-19-19\---15-----15-12/13
 |15/17--------------17-|----------------------|----------------------|
 |----------------------/16-16-16-16-16-16-16-16-16\--12--------------|
 |----------------------|----------------------|----------------------|
 |----------------------|----------------------|----------------------|
 |----------------------|----------------------|----------------------|

G F H P
 
 |-19-19-19-19-19-19-19-19--19-\13--16\13-13-15\13-13------121312-----|
 |----------------------|----------------------|-----------------15---|
 /16-16-16-16-16-16-16-16-16\--\10--13\10----12\10-10-----------------|
 |----------------------|----------------------|----------------------|
 |----------------------|----------------------|----------------------|
 |----------------------|----------------------|----------------------|

[Em] [G] [B]  
 
 |----------------------|-12-----12---------12-|--12--12--12----------|
 |----------------12----|----------------------|--------------12_13---|
 |----------------------|----------------------|----------------------|
 |----------------------|----------------------|----------------------|
 |----------------------|----------------------|----------------------|
 |----------------------|----------------------|----------------------|

Am (trill) (trill) G
 
 |----------------------|----------------------|----------------------|
 |13-121312-13-----121312-1312~~~~~--1213-1512~~~~~~~~~~~~~~~~~~~~~~~~|
 |----------------------|----------14----------|----------------------|
 |----------------------|----------------------|----------------------|
 |----------------------|----------------------|----------------------|
 |----------------------|----------------------|----------------------|

[F]  
 
 |----------------------|15^^--15^^--15^^--15^^|--------15^--15-17-15-|
 |121512151215=====-----|----------------------|--------------17-17---|
 |----------------------|----------------------|----------------------|
 |----------------------|----------------------|----------------------|
 |----------------------|----------------------|----------------------|
 |----------------------|----------------------|----------------------|

[Em] [G] [Am]  
 
 15^-12-----------------|------------------12--|----------------------|
 |----1513-----1513-15--|------------------13--|-----------------13---|
 |--------------------12|-----------12_14------|-14------------14--14-|
 |---------14-----------|----------------------|-14-------------------|
 |----------------------|----------------------|----------------------|
 |----------------------|----------------------|----------------------|

[G]  
 
 |------------------12--|----------------------|----------------------|
 |13-15^^(15)13-----13--|----------------13-15-|15^-15^---15_13--13---|
 |-------------14-------|-14-----------14------|---------------14-----|
 |----------------------|----------------------|----------------------|
 |----------------------|----------------------|----------------------|
 |----------------------|----------------------|----------------------|

[F] [Em]  
 
 |----------------------|-17===---15-----15----|-15^----15^-----15^---|
 |----------------13-15/17------------17---17--|----------------------|
 |--14----------14------|----------------------|----------------------|
 |----------------------|----------------------|----------------------|
 |----------------------|----------------------|----------------------|
 |----------------------|----------------------|----------------------|

G Am P
 
 |12---x----12------12--|------------12-14-12-14-12-------------------|
 |---15-x-----151315--13|--------12------------|---13-----------------|
 |----------------------|141412---14-----------|-----14-12--14_12--14-|
 |----------------------|-----14---------------|----------------------|
 |----------------------|----------------------|----------------------|
 |----------------------|----------------------|----------------------|

[G] [F]  
 
 |----------------------|----------------------|----------------------|
 |--13--1315----13--1315|---13-1315----13-1315-|-13----13---13---13---|
 1414-14-----1414-14----|1414-14----1414-14----|----14----------------|
 |----------------------|----------------------|----------------------|
 |----------------------|----------------------|----------------------|
 |----------------------|----------------------|----------------------|

[Em] [G]  
 
 |---12---12-12------12-|----------------------|-19---17---15-17-15-17|
 |13-----------15--13---|-15^^-------12-----x--|----------------------|
 |----------------------|---------12------x----|----------------------|
 |----------------------|-------14-------x-----|----------------------|
 |----------------------|----------------------|----------------------|
 |----------------------|----------------------|----------------------|

(pinch harmonics) G
 
 |----------------------|----------------------|----------------------|
 10-10--10-10-----10^^^^^^^^^(10)--------------|----------------------|
 |----------------------|----------9^^^^^^^^^^^^(9)--7^^^^^^(7)-------|
 |----------------------|----------------------|-----------------5--7//
 |----------------------|----------------------|----------------------|
 |----------------------|----------------------|----------------------|

[F] [B] [B]  
 
 |----------------------|----------------------|----------------------|
 |----------------------|----------------------|----------------------|
 |----------------------|----------------------|----------------------|
 9----------------------|----------------------|----------0--------2--|
 |-----5^^^^^^^^^^(5)---|----------------------|-3--------------------|
 |----------------------|-1=========--------01-|-------23-------------|

[Em] [G] [Am]  
 
 |----------------------|(0)feedback-----------|-0========-----------||
 |----------------------|----------------------|-1========-----------||
 |----------------------|----------------------|-2========-----------||
 |----------------------|----------------------|-2========-----------||
 |----------------------|----------------------|-0========-----------||
 |0=========================feedback===========|---------------------||

thats it one of neils better songs.

Important: The song above is NOT stored on the Chordie server. The original song is hosted at www.azchords.com. Chordie works as a search engine and provides on-the-fly formatting. Chordie does not index songs against artists'/composers' will. To remove this song please click here.

Text color:
Chord color:
Chord grids: 
Font size:    
Page size: 

Am B C Em Em7 F Fmaj7 G
Rate #1 of 2 versions

Login - add to songbook

SHARE PAGE  




You need to log in to post comments