Guitar Tabs, Chords and Lyrics
Server problems seems to be fixed. Chordie has been experiencing problems with songs disappearing. These issues now seems to be fixed, but still verifying the fix. If you find anything strange, please email admin@chordie.com.


Tomorrow Turned Into Yesterday  Nevermore

Nevermore - Tomorrow Turned Into Yesterday
Played on a 7-string tuned down a half note
You can play it on a regular axe but the song loses some of the Nevermore-sound
Intro
 
 Eb|----0---------------------------------------------
 Bb|---1--1----------4---10-1-------------------------
 Gb|-------2-----0--4-------------0--4-----------------------
 Db|--2---------0--4----2--------0--4--2------------------------
 Ab|-3---------2--2----3--------2--2--22------------------------
 Eb|---------23---------------23-------0------------------------
 Bb|------------------------------------------------------------

Intro "solo"
 
 Eb|-------------------------------------------------------------
 Bb|-----------1212-----------12---------------------------------
 Gb|-11h12-1214-----1412111214--12--1212h14p1211-----------------
 Db|---------------------------------------------1412------------
 Ab|-------------------------------------------------12----------
 Eb|---------------------------------------------------15141512--
 Bb|-------------------------------------------------------------

Verse Little pre-verse lead
 
 Eb|---------------------------------0--- -----------------------------------
 Bb|------------0-----------------0---3-- -----------------------------------
 Gb|----0------3--3-------0------2-2----- -----------------------------------
 Db|---2--2---2----2-----0--0---2---2---- -12h14-141211--1412----------------
 Ab|--2----2-4----------2----2-0--------- -------------------10--910b(12)-12-
 Eb|-0---------------023------3---------- -----------------------------------
 Bb|------------------------------------- -----------------------------------

^ - vol. swell
Pre-chorus
 
 Eb|----0---0--------------------------
 Bb|------1-1---1/3--------------------
 Gb|---0----0--------------------------
 Db|--2-----2---2/4--4444222255554454--
 Ab|-3------3--------2222000055554454--
 Eb|-----------------2222000033332232--
 Bb|-----------------------------------

^ - dist.
Chorus
[Ab5] [Cb5] [Gb5] [F5] [E5]  
 
 Eb|--------------------------------------
 Bb|--------------------------------------
 Gb|--------------------------------------
 Db|--------------------------------------
 Ab|--7-------10-------10------9-8--------
 Eb|--5--------8-------10------9-8--------
 Bb|--5--------8--------8------7-6--------

Bridge rhythm
 
 Eb|---------------------------------
 Bb|---------------------------------
 Gb|--7------5------7------3---5-----
 Db|--7------5------7------3---5-----
 Ab|--5------3------5------1---3-----
 Eb|--5------3------5------1---3-----
 Bb|---------------------------------

Bridge lead
 
 Eb|---------------------------------
 Bb|---------------------------------
 Gb|---------------------------------
 Db|---------5-------------5--7-5----
 Ab|--5-7-8---------5-7-8----8-------
 Eb|---------------------------------
 Bb|---------------------------------

Heavy part
 
 Eb|-----------------------------------
 Bb|-----------------------------------
 Gb|-----------------------------------
 Db|-----------------------------------
 Ab|-7-----7-----7---8-----8-----8-----
 Eb|-5-xxxx5-xxxx5-xx6-xxxx6-xxxx6-xx--
 Bb|-5-xxxx5-xxxx5-xx6-xxxx6-xxxx6-xx--

Solo backing
 
 Eb|------------------------------
 Bb|------------------------------
 Gb|-9-----12---------------------
 Db|-9-----12-----12---11-10------
 Ab|-7-----10-----12---11-10------
 Eb|-7-----10-----10----9--8------
 Bb|------------------------------

Solo: Sorry, can't really help you there
Final chorus (up one note)
[Bb5] [Db5] [Ab5] [G5] [F#5]  
 
 Eb|--------------------------------------
 Bb|--------------------------------------
 Gb|--------------------------------------
 Db|--------------------------------------
 Ab|--9-------12-------12-----11-10-------
 Eb|--7-------10-------12-----11-10-------
 Bb|--7-------10-------10------9--8-------

Then play the bridge and end with the heavy part. Over and out!

Important: The song above is NOT stored on the Chordie server. The original song is hosted at www.azchords.com. Chordie works as a search engine and provides on-the-fly formatting. Chordie does not index songs against artists'/composers' will. To remove this song please click here.

Text color:
Chord color:
Chord grids: 
Font size:    
Page size: 

Ab5 Bb5 Db5 E5 F#5 F5 G5 Gb5
Rate #1 of 1 versions

Login - add to songbook

SHARE PAGE  



You need to log in to post comments