Guitar Tabs, Chords and Lyrics
Server problems seems to be fixed. Chordie has been experiencing problems with songs disappearing. These issues now seems to be fixed, but still verifying the fix. If you find anything strange, please email admin@chordie.com.


All Downhill From Here  New Found Glory

[#####################################################]  
CHORDS
[A] [D] [B] [E] [F#]  
 
 e|-----------------|
 B|-----------------|
 G|-----7-----9-----|
 D|--7--7--9--9--4--|
 A|--7--5--9--7--4--|
 E|--5-----7-----2--|

INTRO
 
 e|----------------------|
 B|----------------------|
 G|----6/7-2-22-6/4-4/6--|
 D|--4-x-x-2-22-x-x-x-x--| (4x)
 A|--4-4/5-0-00-4/2-2/4--|
 E|--2-------------------|

VERSE 1
 
 e|-----------------------|
 B|-----------------------|
 G|-----------------------| (palm mute)
 D|-----------------------| (4x)
 A|-------5555-0000-2222--|
 E|--2222-----------------|

you're hiding something cuz it's burning through your eyes
i try to get it out but all i hear from you are lies
[F#]and i can [D]tell you're [A]going through the [B]motions
[F#]figured [D]you were [A]writing [B]out your [F#]part
once [D]again we're [A]playing off e[B]motion
[F#]which one of [D]us will [B]burn until the [A]end
CHORUS
[A]cata[D]lyst you in[F#]sist to pull me [E]down
you [A]contradict the [D]fact that you [F#]still want me a[E]round
(guitar 2)
 
 e|--------------------------------------------------------|
 B|-6---6-7-6-9---6---6-7-6-----6---6-7-6-9-------6-7-6----|
 G|---7-------------7-------7-----7-----------7-9-------7--|
 D|--------------------------------------------------------|
 A|--------------------------------------------------------|
 E|--------------------------------------------------------|

and its [A]all down[D]hill from [F#]here[E]
and its [A]all down[D]hill from [F#]here[E]
(INTRO RIFF 2x)
VERSE 2
your good intentions slowly turn to bitterness
reoccurring episodes with each and every kiss
and i can tell you're going through the motions
figured you were writing out your part
once again we're playing off emotions
which one of us will burn until the end
CHORUS
catalyst you insist to pull me down
you contradict the fact that you still want me around
and its all downhill from here
and its all downhill from here
BRIDGE
(INTRO RIFF 6x)
and i can‚??t believe you pulled it off again
i‚??m running till it all sets in
you‚??ll deny it till you‚??re at your bitter end
[F#]and i can [D]tell you're [A]going through the [B]motions
[F#]figured [D]you were [A]writing [B]out your [F#]part
once [D]again we're [A]playing off e[B]motion
[F#]which one of [D]us will [B]burn until the [A]end
CHORUS (no distortion)
catalyst you insist to pull me down
you contradict the fact that you still want me around
and its all downhill from here
and its all downhill from here
(AND YOU KEEP PULLING ME)
CHORUS (heavy distortion)
down
pulling me down pulling me down
you contradict the fact that you still want me around,
and its all downhill from here
and its all downhill from here
(INTRO RIFF 2x)

Important: The song above is NOT stored on the Chordie server. The original song is hosted at www.azchords.com. Chordie works as a search engine and provides on-the-fly formatting. Chordie does not index songs against artists'/composers' will. To remove this song please click here.

Text color:
Chord color:
Chord grids: 
Font size:    
Page size: 

A B D E F#
Rate #1 of 4 versions

Login - add to songbook

SHARE PAGE  



You need to log in to post comments