Guitar Tabs, Chords and Lyrics
Server problems seems to be fixed. Chordie has been experiencing problems with songs disappearing. These issues now seems to be fixed, but still verifying the fix. If you find anything strange, please email admin@chordie.com.


Tell Tale Heart  New Found Glory

 
 ------------------------------------------------------------------------
 ------------------------------------------------------------------------

By MrBob-
Tuning - EADGBe (standard)
Pretty easy song, i've put both guitars in, and some
of the lyrics and the time above the tab to make it
easier to understand.
~ - Let ring
s - Slide
h - Hammer on
p - Pull off
pm|--| - Palm mute
Good luck :)
-Intro
(0:00)
[A] Guitar 1
 
 |pm-------------|
 E|---------------------------------------------------------------|
 B|---------------------------------------------------------------|
 G|---------------------------------------------------------------|
 D|7~-----7--7-7-7~-----7--7-7-7~-----7--7-7-7~-------------------|
 A|7~-----7--7-7-7~-----7--7-7-7~-----7--7-7-7~--7-7-7-7-7-7-7-7--|
 E|5~-----5--5-5-5~-----5--5-5-5~-----5--5-5-5~--5-5-5-5-5-5-5-5--|

| |
| Guitar 2 |
 
 E|---------------------------------------------------------------|
 B|---------------------------------------------------------------|
 G|---------------------------------------------------------------|
 D|7~-----7--7-7-7~-----7--7-7-7~-----7--6---7~-------------------|
 A|7~-----7--7-7-7~-----7--7-7-7~----------7-7~-------------------|
 E|5~-----5--5-5-5~-----5--5-5-5~------------5~-------------------|

(0:11)
(Riff 1, play this part three times, but without
palm-muting on the second and third time.)
[A] Guitar 1 [D]
 
 |pm--------------------------------------------|
 E|----------------------------------------------------------------|
 B|----------------------------------------------------------------|
 G|----------------------------------------------------------------|
 D|--------------------------------7-7-7-7-7-7-7-7-7-7-7-7-7-7-7-7-|
 A|7-7-7-7-7-7-7-7-7-7-7-7-7-7-7-7-5-5-5-5-5-5-5-5-5-5-5-5-5-5-5-5-|
 E|5-5-5-5-5-5-5-5-5-5-5-5-5-5-5-5---------------------------------|

| |
| Guitar 2 |
 
 |pm--------------------------------------------------------| |
 E|----------------------------------------------------------------|
 B|----------------------------------------------------------------|
 G|----------------------------------------------------------------|
 D|------------------------------------7------------7------------7-|
 A|----7-----------7-----------7---4-5---4-5-7--4-5---4-5-7--4-5---|
 E|4-5---4-5-7-4-5---4-5-7-4-5-------------------------------------|

[A] Guitar 1 [D]
 
 E|----------------------------------------------------------------|
 B|----------------------------------------------------------------|
 G|--------------------------------7-7-7-7-7-7-7-7-7-7-7-7-7-7-7-7-|
 D|7-7-7-7-7-7-7-7-7-7-7-7-7-7-7-7-7-7-7-7-7-7-7-7-7-7-7-7-7-7-7-7-|
 A|7-7-7-7-7-7-7-7-7-7-7-7-7-7-7-7-5-5-5-5-5-5-5-5-5-5-5-5-5-5-5-5-|
 E|5-5-5-5-5-5-5-5-5-5-5-5-5-5-5-5---------------------------------|

| |
| Guitar 2 |
 
 E|----------------------------------------------------------------|
 B|----------------------------------------------------------------|
 G|7p6---7p6---7p6---7p6---7p6-------7h9-7----7-7-7p6--------------|
 D|----7-----7-----7-----7-----7-----------------------7-5~~~------|
 A|----------------------------------------------------------------|
 E|----------------------------------------------------------------|

-Now play 'riff 1' again once, then...
(0:38)
"Don't tell..
[A] Guitar 1 [Ab/E] [A] [E] [D] [Db] [B]
 
 E|-----|------------------------------------------|
 B|-----|*----------------------------------------*|
 G|-----|-------------------------------77-7-6--4--|
 D|7~---|-77-7-7-7-6-6-6-7-7-7-22-2-2-2-77-7-6--4--|
 A|7~---|*77-7-7-7-7-7-7-7-7-7-22-2-2-2-55-5-4--2-*|
 E|5~---|-55-5-5-5-4-4-4-5-5-5-00-0-0-0------------|

| |
| |x2
| |
 
 E|-----|------------------------------------------|
 B|-----|*----------------------------------------*|
 G|-----|----------------------------------7-6--4--|
 D|7~---|-77-------------------------------7-6--4--|
 A|7~---|*77-------------------------------5-4--2-*|
 E|5~---|-55---------------------------------------|

-Verse
(0:50)
..me what it's like to love someone"
[A] Both G[Ab/E]uitars[A] [E] [D] [Db] [B]
 
 E|------------------------------------------|
 B|*----------------------------------------*|
 G|-------------------------------77-7-6--4--|
 D|-77-7-7-7-6-6-6-7-7-7-22-2-2-2-77-7-6--4--|
 A|*77-7-7-7-7-7-7-7-7-7-22-2-2-2-55-5-4--2-*|
 E|-55-5-5-5-4-4-4-5-5-5-00-0-0-0------------|

(1:02)
"Tell tale heart again.."
[A] Bot[B]h Guita[D]rs [Db] [B] [E] [D]
 
 E|------------------------------| |------------------|
 B|*----------------------------*| |------------------|
 G|-2-2--2-4-4--4-7-7--7-7-6--4--| x3 |-99-9-99-9-7-7-7--|
 D|-2-2--2-4-4--4-7-7--7-7-6--4--| |-99-9-99-9-7-7-7--|
 A|*0-0--0-2-2--2-5-5--5-5-4--2-*| |-77-7-77-7-5-5-5--|
 E|------------------------------| |------------------|

-Guitar 1 plays these chords again (palm muted)
while the lead plays..
(1:11)
"These words.."
Guitar 2
 
 |pm----------|
 E|--------------------------------------------------|
 B|--------------------------------------------------|
 G|7-6---7-6---7-6----------7-6---7-6------------9---|
 D|----7-----7-----9-7-9-7------7-----7-7-7--7-7---7-|
 A|--------------------------------------------------|
 E|--------------------------------------------------|
 E|--------------------------------------------------|
 B|--------------------------------------------------|
 G|7-6---7-6---7-6----------9-9--9-9s11--9-7----7~~--|
 D|----7-----7-----9-7-9-------------------7----7~~--|
 A|----------------------------------------5----5~~--|
 E|--------------------------------------------------|

-Pre-chorus
(1:20)
"You would come over.."
Guitar 1
 
 |pm- -- -- -- -- -- -- -- -- -- -- -- -- -- --|
 E|-------------------------------------------------------------------|
 B|-------------------------------------------------------------------|
 G|-------------------------------------------------------------------|
 D|----------------777-777-777-777------------------------------------|
 A|777-777-777-777-555-555-444-555-777-777-777-7772-2-222-222-222-----|
 E|555-555-444-555-----------------555-555-444-5550-0-000-000-000-5h7-|

| |
| |x2
| Guitar 2 (second time only) |
| pm|----| |
 
 E|-------------------------------------------------------------------|
 B|-------------------------------------------------------------------|
 G|--------------------------77-6---------------------------------2h4-|
 D|-------------------------------7-----------------------------------|
 A|-------------------------------------------------------------------|
 E|-------------------------------------------------------------------|

-Chorus
"Stay..!"
(1:39)
[A] Guitar 1 [D] [Db/A]
 
 E|--------------------------------|
 B|--------------------------------|
 G|----------------7-7-7-7-6-6-6-6-|
 D|7-7-7-7-7-7-7-7-7-7-7-7-7-7-7-7-|
 A|7-7-7-7-7-7-7-7-5-5-5-5-4-4-4-4-|
 E|5-5-5-5-5-5-5-5-----------------| 

| |
| |x2
| |
| Guitar 2 |
 
 E|--------------------------------|
 B|----------------3~~-----2~~-----|
 G|2~~~~-------2h4-------------2h4-|
 D|--------------------------------|
 A|--------------------------------|
 E|--------------------------------| 

[A] Guitar 1[D] [Db/A]
 
 E|--------------------------------|
 B|--------------------------------|
 G|----------------7-7-7-7-6-6-6-6-|
 D|7-7-7-7-7-7-7-7-7-7-7-7-7-7-7-7-|
 A|7-7-7-7-7-7-7-7-5-5-5-5-4-4-4-4-|
 E|5-5-5-5-5-5-5-5-----------------|

| |
| |x2
| Guitar 2 |
 
 |pm|-----| |------| |
 E|--------------------------------|
 B|--------332200----------332200--|
 G|22--22--------2-22--22--------2-|
 D|--22--22----------22--22--------|
 A|--------------------------------|
 E|--------------------------------|

-Break
Guitar 1
 
 E|-----------------------------------------------------------|
 B|-----------------------------------------------------------|
 G|-------------------------------------------------7--7-6--4-|
 D|7~~-----------7-------------7~~-----------7~~----7--7-6--4-|
 A|7~~-----------7-------------7~~-----------7~~----5--5-4--2-|
 E|5~~-----------5-------------5~~-----------5~~--------------|

| |
| Guitar 2 |
 
 E|-----------------------------------------------------------|
 B|-----------------------------------------------------------|
 G|----------------------------7-6~~----------------7--7-6--4-|
 D|7~~-----------7~~-------------------------7~~----7--7-6--4-|
 A|7~~-----------7~~-------------------------7~~----5--5-4--2-|
 E|5~~-----------5~~-------------------------5~~--------------|

again, and that's about it, just end on a couple of A power chords :)

Important: The song above is NOT stored on the Chordie server. The original song is hosted at www.azchords.com. Chordie works as a search engine and provides on-the-fly formatting. Chordie does not index songs against artists'/composers' will. To remove this song please click here.

Text color:
Chord color:
Chord grids: 
Font size:    
Page size: 

A Ab/E B D Db E
Rate #1 of 1 versions

Login - add to songbook

SHARE PAGE  



You need to log in to post comments