Guitar Tabs, Chords and Lyrics
Update 25:10. 13:00. Site is back up running again. Songbooks are recovered. Woring on getting search back up..


Too Good to Be  New Found Glory

 
 ------------------------------------------------------------------------------

Too Good To Be - New Found Glory
Coming Home
 
 ------------------------------------------------------------------------------

This is the most accurate way to play the song with a single guitar.
Sounds impressive on an acoustic, so keep it in your song bank to impress the ladies. :)
Tuning: Standard EADGBE
Intro
[C#m] [B5] [Asus2] [C#m] [B5] [Asus2]  
 
 e|-x---x---x-x-x-x-----0-----0-----0-------0-----0-----0------|
 B|-x---x---x-x-x-x-----0-----0-----0-------0-----0-----0------|
 G|-x---x---x-x-x-x-----6-----4-----2p1-----6-----4-----2------|
 D|-x---x---x-x-x-x-----6-----4-----2-------6-----4-----2------|
 A|-x---x---x-x-x-x-----4-----2-----0-------4-----2-----0------|
 E|-x---x---x-x-x-x-----------------0-------------------0------| x2

[Daa] [Daa] [Da-da] [Daa] [Daa] 
Verse
[C#m] [B5] [F#m] [Asus2] [AM7sus2]  
 
 e|---0-----0-----0-----0---------|--0---|
 B|---0-----0-----0-----0---------|--0---|
 G|---6-----4-----0-----2---------|--1---|
 D|---6-----4-----4-----2---------|--2---|
 A|---4-----2-----4-----0---------|--0---|
 E|---------------2-----0---------|--0---|

I [C#m]won-[B5]der, [F#m]what life would [Asus2]be like if my
[C#m]shoul-[B5]der, could [F#m]bear the weight of [Asus2]all this adding
[C#m]up I [B5]feel, the [F#m]breaking point it's [Asus2]close enough, it's
[C#m]fee-ling [B5]real a-gai[F#m]n[AM7sus2]
Chorus
[E5] [Asus2] [C#m] [B5] [Asus2]  
 
 e|---0-----0-----| |---0-----0-----0-----|
 B|---0-----0-----| |---0-----0-----0-----|
 G|---9-----2-----| |---6-----4-----2-----|
 D|---9-----2-----| |---6-----4-----2-----|
 A|---7-----0-----| |---4-----2-----0-----|
 E|---------------|x2 |---------------0-----|x2

You [E5]have my heart in your[Asus2] hands
You [E5]have my heart so don't[Asus2], don't let it go
[C#m]Check my [B5]pressure, [Asus2]patch me up right up,
[C#]You're too [B5]good to [Asus2]be
[C#m] [B5] [Asus2] [C#m] [B5] [Asus2]  
 
 e|---0-----0-----0-------0-----0-----0------|
 B|---0-----0-----0-------0-----0-----0------|
 G|---6-----4-----2p1-----6-----4-----2------|
 D|---6-----4-----2-------6-----4-----2------|
 A|---4-----2-----0-------4-----2-----0------|
 E|---------------0-------------------0------| x2

[Daa] [Daa] [Da-da] [Daa] [Daa]  
Verse 2
[C#m]It's true[B5], [F#m]we both make [Asus2]sacrifices
[C#m]There's proof[B5], [F#m]it came as [Asus2]no surprise
It [C#m]bo-iled [B5]up, [F#m]as we always [Asus2]let it do
We [C#m]made it [B5]through a-gai[F#m]n[AM7sus2]
Chorus
You [E5]have my heart in your[Asus2] hands
You [E5]have my heart so don't[Asus2], don't let it go
[C#m]Check my [B5]pressure, [Asus2]patch me up right up,
[C#]You're too [B5]good to [Asus2]be (yeah!)
Solo
 
 e|------------------------------------------|
 B|------------------------------------------|
 G|--------9-11/13\11-9------9-11-11/14-13---|
 D|---9-11--------------9-11-----------------|
 A|------------------------------------------|
 E|------------------------------------------| x2
 e|------------------------------------------|
 B|---12-------------------------------------|
 G|------13-11/13-13------9-11/13\11-9-------|
 D|------------------9-11--------------------|
 A|------------------------------------------|
 E|------------------------------------------|
 e|------------------------------------------|
 B|---12-------------------------------------|
 G|------13-11/13-13-11----------------------|
 D|---------------------14-13-14-13-11-9~----|
 A|------------------------------------------|
 E|------------------------------------------|

Oh You know you
Chorus
You [E5]have my heart in your[Asus2] hands
You [E5]have my heart so don't[Asus2], don't let it go
You [E5]have my heart in your[Asus2] hands
You [E5]have my heart so don't[Asus2], don't let it go
[C#m]don't let it [B5]go---[Asus2]o (you have my heart)
[C#m]don't let it [B5]go---[Asus2]o (so hold on)
[C#m]Check my [B5]pressure, [Asus2]patch me up right up,
[C#]You're too [B5]good to [Asus2]be
(pause)
Outro
[C#m] [B5] [Asus2] [C#m] [B5] [Asus2]  
 
 e|---0-----0-----0-------0-----0-----0------|
 B|---0-----0-----0-------0-----0-----0------|
 G|---6-----4-----2p1-----6-----4-----2------|
 D|---6-----4-----2-------6-----4-----2------|
 A|---4-----2-----0-------4-----2-----0------|
 E|---------------0-------------------0------| x2

[Daa] [Daa] [Da-da] [Daa] [Daa]  
(strum each chord once & let ring)
[C#m]You're too [B5]good for [Asus2]me
| / slide up
| \ slide down
| h hammer-on
| p pull-off
| ~ vibrato
| + harmonic
| x Mute note
===============================================================================

Important: The song above is NOT stored on the Chordie server. The original song is hosted at www.azchords.com. Chordie works as a search engine and provides on-the-fly formatting. Chordie does not index songs against artists'/composers' will. To remove this song please click here.

Text color:
Chord color:
Chord grids: 
Font size:    
Page size: 

Am7sus2 Asus2 B5 C# C#m E5 F#m
Rate #2 of 7 versions

Login - add to songbook

SHARE PAGE  




You need to log in to post comments