Guitar Tabs, Chords and Lyrics
Major upgrade!! After one year development the new version of Chordie is now online! Please give feedback.


Age of Consent  New Order

 
 ----------------------------------------------------------------------------
 ----------------------------------------------------------------------------

Tuning: Standard (eGBDAE)
Main Bass lines:
 
 G|-------7--7--7--7--7--7--9--7--7--7---------------------------------------|
 D|-7--9---------------------------------------------------------------------|
 A|--------------------------------------------------------------------------|
 E|--------------------------------------------------------------------------|
 G|-------7--7--7--9--7--9--7--9---------------------------------------------|
 D|-7--9---------------------------7--9--------------------------------------|
 A|--------------------------------------------------------------------------|
 E|--------------------------------------------------------------------------|

Intro Guitar
 
 e|---------------------------------------------------------------------------|
 B|----7--7--7--7--7--7--7--7--7--7--7--5--5--5--5--3--5--3--5----------------|
 G|--7--7--7--7--7--7--7----------------------------------------2h4-4-4-4-4---|
 D|---------------------------------------------------------------------------|
 A|---------------------------------------------------------------------------|
 E|---------------------------------------------------------------------------|
 e|------------------------------------------------5s7--7-7-7-7-7-7-----------|
 B|-------------7--7--7--7--5--5--5--5--3--5--3--5----------------------------|
 G|-4-4-4-4-------------------------------------------------------------------|
 D|---------------------------------------------------------------------------|
 A|---------------------------------------------------------------------------|
 E|---------------------------------------------------------------------------|

[D]Won't you please let me g[G]o
These w[D]ords lie inside they hurt me so[G]
And I[D]'m not the kind that likes to tell you
[G]Just what I want to do
[D]I'm not the kind that needs to tell you
[G]Just what you want me to[D] [G]
I [D]saw you this morning
I thought that you might like to know[G]
I r[D]eceived your message in full a few days ag[G]o
I unde[D]rstood every word that it sai[G]d
And now that I[D]'ve actually heard it
You're going to regret[G]
And I[D]'m not the kind that likes to tell you
[G]Just what you want me to
[D]You're not the kind that needs to tell me[G]
About the birds and the bees
Keyboard part:
 
 e|--------------------------------------------------------------------------|
 B|--7--5--7--8-------7--5--7--8--5------------------------------------------|
 G|----------------------------------4---------------------------------------|
 D|--------------------------------------------------------------------------|
 A|--------------------------------------------------------------------------|
 E|--------------------------------------------------------------------------|
 e|-----------------------------------7---5----------------------------------|
 B|--7--5--7--8-------7--5--7--8--5------------------------------------------|
 G|--------------------------------------------------------------------------|
 D|--------------------------------------------------------------------------|
 A|--------------------------------------------------------------------------|
 E|--------------------------------------------------------------------------|

Guitar Solo:
 
 e|--------------------------------------------------------------------------|
 B|------------------------------------------------------3-------------------|
 G|--4--2----4---2---4---------------4--4--4--2------2-------2--4------------|
 D|--------------------------------------------------------------------------|
 A|-----------------------2-----------------------------------------2--------|
 E|--------------------------------------------------------------------------|
 e|--------------------------------------------------------------------------|
 B|--------------------------------------------------------------------------|
 G|--------------------------------------------------------------------------|
 D|--4--4--2--4--4--2--4--4--7--7--7--4--4--2--4--4--2--4--4--2--2--2--------|
 A|--------------------------------------------------------------------------|
 E|--------------------------------------------------------------------------|

Not Sure About The Chordal Part, something in the key of D:
 
 e|-2-2-2-2-2-2-2-2-2-2-2-2-2-2-2-2-2-2-2-2-2-2-2-2-2-2-2--------------------|
 B|-3-3-3-3-3-3-3-3-3-3-3-3-3-3-3-3-3-3-3-3-3-3-3-3-3-3-3--------------------|
 G|-2-2-2-2-2-2-2-2-2-2-2-2-2-2-2-2-2-2-2-2-2-2-2-2-2-2-2--------------------|
 D|-0-0-0-0-0-0-0-0-0-0-0-0-0-0-0-0-0-0-0-0-0-0-0-0-0-0-0--------------------|
 A|--------------------------------------------------------------------------|
 E|--------------------------------------------------------------------------|

[D]Do you find this happens all the time[G]
[D]Crucial point one day becomes a crime[G]
And I[D]'m not the kind that likes to tell you
[G]Just what I want to do
[D]I'm not the kind that needs to tell yo[G]u
I've lost you
 
 e|--------------------------------------------------------------------------|
 B|---------7-------------7--------------------------------------------------|
 G|--7--7-----7--7--7--------7---7--7---------7--7---------------------------|
 D|-------7------------7----------------7--7--------7--7---------------------|
 A|--------------------------------------------------------------------------|
 E|--------------------------------------------------------------------------|
 e|--------------------------------------------------------------------------|
 B|--7--7-------7--7-------7--7-----7--7-------------------------------------|
 G|--7--7-------7--7-------7--7-----7--7-------------------------------------|
 D|--7--7-------7--7-------7--7-----7--7-------------------------------------|
 A|--5--5-------5--5-------5--5-----5--5-------------------------------------|
 E|--------------------------------------------------------------------------|

Repeat keyboard part until fade out
Please rate, comment, improve etc
Thanks
Markie31
| / slide up
| \ slide down
| h hammer-on
| p pull-off
| ~ vibrato
| + harmonic
| x Mute note
===============================================================================

Important: The song above is NOT stored on the Chordie server. The original song is hosted at www.azchords.com. Chordie works as a search engine and provides on-the-fly formatting. Chordie does not index songs against artists'/composers' will. To remove this song please click here.

Text color:
Chord color:
Chord grids: 
Font size:    
Page size: 

D G
Rate #1 of 1 versions

Login - add to songbook

SHARE PAGE  




You need to log in to post comments