Guitar Tabs, Chords and Lyrics
Server problems seems to be fixed. Chordie has been experiencing problems with songs disappearing. These issues now seems to be fixed, but still verifying the fix. If you find anything strange, please email admin@chordie.com.


Teardrop  Newton Faulkner

Newton Faulkner - Teardrop
Tuning - Db Gb Db Gb Bb Db (often DGDGBD live)
Percussion notation:

between sound hole and bridge
* = slap body with thumb, above strings, by end of fretboard
Right hand should remain roughly in natural picking position throughout
Rhythm:
 
 Db|------------------------------------|
 Bb|------------------------------------|
 Gb|------------------------------------|
 Db|------------------------------------|
 Gb|------------------------------------|
 Db|------------------------------------|


During verse, the first # is replaced by plucking of bass notes.
Intro:
(Strings picked, not strummed)
[Db] [B2] [Gb] [Db]  
 
 Db|--------|--------|--------|--------|
 Bb|--------|--------|--------|--------|
 Gb|--------|-0------|-0------|--------|
 Db|-0------|-0------|-0------|-0------| X2
 Gb|-7------|-5------|--------|-7------|
 Db|-0------|--------|-5------|-0------|

[B2] [Gb] [Db]  
 
 Db|--------|--------|--------|
 Bb|--------|--------|--------|
 Gb|-0------|-0------|--------|
 Db|-0------|-0------|-0------|
 Gb|-5------|--------|-7------|
 Db|--------|-5------|-0------|

| Percussion | x 8 bars
Verse:
Bass notes picked with right hand
Meoldy played by fretting hand
See notes above on percussion
[Db] [B2]  
 
 Db|---p0-h7-p0-h5-p0-h5-h7--|---p0-h7-p0-h5-p0-h5-h7-|
 Bb|-------------------------|------------------------|
 Gb|-------------------------|-0----------------------|
 Db|-0-----------------------|------------------------|
 Gb|-------------------------|-5----------------------| |
 Db|-0-----------------------|------------------------| |

|
Gb Db | x2
 
 Db|---p0-h7-p0-h5-p0-h5-h7--|---p0-h7-p0-h5-p0-h5-h7-| |
 Bb|-------------------------|------------------------| |
 Gb|-------------------------|------------------------| |
 Db|-0-----------------------|-0----------------------|
 Gb|-------------------------|------------------------|
 Db|-5-----------------------|-0----------------------|

[B9] [Gb] [Db]  
 
 Db|---------|--------|---------|
 Bb|---------|--------|---------|
 Gb|-<12>----|-<12>---|-7-------|
 Db|-<12>----|-<12>---|--0------|
 Gb|---------|-<12>---|---7-----|
 Db|--10-----|--------|----0----|

nh nh
B2 B2 n.c
 
 Db|-----|-----|--p0-h7-p0-h5-p0-h5-h7-|--p0-h7-p0-h5-p0-h5-h7-|
 Bb|-----|-----|-----------------------|-----------------------|
 Gb|-0---|-0---|-----------------------|-----------------------|
 Db|-0---|-0---|-----------------------|-----------------------|
 Gb|-5---|-5---|-----------------------|-----------------------|
 Db|-----|-----|-----------------------|-----------------------|

Outro:
Full percussion and bass/melody notes as per the start
of the verse, except bars with *, do not play the bass
notes in these bars. Chord structure:
| Db | B2 | Gb | Db |
| B2 | Gb | Db | Db*|
| B2 | B2*| B2 | B2*|
| Db | B2 | Gb | Db |
| Db*| B2 | Gb | Db |
| Db | B2 | Gb | Db | fade out

Important: The song above is NOT stored on the Chordie server. The original song is hosted at www.azchords.com. Chordie works as a search engine and provides on-the-fly formatting. Chordie does not index songs against artists'/composers' will. To remove this song please click here.

Text color:
Chord color:
Chord grids: 
Font size:    
Page size: 

B2 B9 Db Gb
Rate #2 of 3 versions

Jango Player

Login - add to songbook

SHARE PAGE  



You need to log in to post comments