Guitar Tabs, Chords and Lyrics
Major upgrade!! After one year development the new version of Chordie is now online! Please give feedback.


Good Times Gone  Nickelback

This is a song of Nickelback - Good Time Gone. It is not that hard to play. It consists
only 2 parts: the intro and the chorus. I think its a very good song and played it many
with the original music, that is why I really think it is right, but if you have any
The Intro:
G (E - 3) F (E - *) D# (E - *)
(B - 3) (B - 1) (B - 8)
(G - 0) (G - 2) (G - 8)
(D - 0) (D - 3) (D - 8)
[(A](E [-]- [2)]1) [(A](E [-]- [3)]*) [(A](E [-]- [6)]*)
Then comes the other part of the intro as well as the singer:
 
 -------------------------------------|
 -------------------------------------|
 -----0-------0-------0-------0-------|
 -------0-------0-------0-------0-----|
 -------------------1-----1-3-----3---|
 ---3-----3-1-----1-------------------|

Only then comes the chorus. You can play that using 4 chords with a right combination.
play A and then go to B (You only play B when the singer sings "...all the sh*t we've
Afterwards play the second part of the intro again.
[A]  
 
 ----------------------------------------|
 ----------------------------------------|
 ---8-8-8--10-10-10----------------------|
 ---8-8-8--10-10-10--10-10-10-10-10-10---|
 ---6-6-6-- 8--8--8--10-10-10-10-10-10---|
 ---------------------8--8--8--8--8--8---|

[B]  
 
 -------------------------------------|
 -------------------------------------|
 ---8-8-8--10-10-10-------------------|
 ---8-8-8--10-10-10--8-8-8--10-10-10--|
 ---6-6-6-- 8--8--8--8-8-8--10-10-10--|
 --------------------6-6-6---8--8--8--|


Important: The song above is NOT stored on the Chordie server. The original song is hosted at www.azchords.com. Chordie works as a search engine and provides on-the-fly formatting. Chordie does not index songs against artists'/composers' will. To remove this song please click here.

Text color:
Chord color:
Chord grids: 
Font size:    
Page size: 

A B
Rate #1 of 1 versions

Login - add to songbook

SHARE PAGE  




You need to log in to post comments