Guitar Tabs, Chords and Lyrics
Major upgrade!! After one year development the new version of Chordie is now online! Please give feedback.


Been a Son   Nirvana

 
 E|--0-0---------0-0-0---------|
 B|--3-3---------3-3-3---------|
 G|--2-2---------2-2-2---------|
 D|--0-0---------0-0-0---------|
 A|--0-0--3-2-0--0-0-0--3-2-0--|
 E|--0-0---------0-0-0---------|

 


 


 Chorus


 

 
 D|--5--5-5--3--3--2-2-2---------|
 A|--5--5-5--3--3--2-2-2--3-2-0--|
 E|--3--3-3--1--1--0-0-0---------|

 


 


 [End]  

 
 D|-2----------------|
 A|-2------X\\\\-----|
 E|-0----------------|


Important: The song above is NOT stored on the Chordie server. The original song is hosted at www.azchords.com. Chordie works as a search engine and provides on-the-fly formatting. Chordie does not index songs against artists'/composers' will. To remove this song please click here.

This song is displayed as text-only. Transposing and tuning is only available for chordpro-songs.
Rate #1 of 4 versions

Jango Player

Login - add to songbook

SHARE PAGE  



You need to log in to post comments