Guitar Tabs, Chords and Lyrics
Server problems seems to be fixed. Chordie has been experiencing problems with songs disappearing. These issues now seems to be fixed, but still verifying the fix. If you find anything strange, please email admin@chordie.com.


Empty From the Start  Noah Gundersen

Tuning:EADGBe
Chords Used:
Em7* D D* G C Am
 
 e|-------------------3----3----0-------|
 B|-----3----5---3----3----3----1-------|
 G|-----0----0---2----0----0----2-------|
 D|-----2----4---0----0----2----2-------|
 A|-----0----5---0----2----3----0-------|
 E|--------------2----3-----------------|

Intro:
 
 e|-----------0----3---0-----------------------------------|
 B|---1---3----------------0---3-------3-----3-------3-----|
 G|----------------------------0-------------0-------------|
 D|---2------------------------4---4------4--4---4-----4---|
 A|---0-0---0---0--------------5-5---5-------5-5---5-------|
 E|----------------0-0---0---------------------------------|
 e|-----------0----3---0-----------------------------------|
 B|---1---3----------------0---3-------3-------------------|
 G|----------------------------0-------------4--5---4------|
 D|---2------------------------4---4------4--5-------------|
 A|---0-0---0---0--------------5-5---5---------------------|
 E|----------------0-0---0-------------------3--3---3------|
 e|-----------0----3---0-----------------------------------|
 B|---1---3----------------0---3-------3-------------------|
 G|----------------------------0-------------4--5---4------|
 D|---2------------------------4---4------4--5-------------|
 A|---0-0---0---0--------------5-5---5---------------------|
 E|----------------0-0---0-------------------3--3---3------|
 e|-----------------3---------------------------3----------|
 B|--------------------------------------------------------|
 G|---4-5------5--------4----4---------5------------5----5-|<-- This part is definitely not perfect. But the
 D|--------5----------------------5--------5---------------| song was a little hard to follow.
 A|--------------------------------------------------------|
 E|------3---3----3---3----3----3----3---3---3----3---3----| <-- You will have to use your thumb

for this string.
Em7* D
Stars falling from the sky
[G]Buildings burning all the t[C]ime
Em7* D
Tall rivers running wild
[G]Stretching out for miles and[C] miles
Em7* D
I think I heard a good man say
[G]God is love and love has m[C]ade us
Em7* D
But have you seen the news today
[G]I have and I think God is g[C]one away
If he was ever there anyway
Em7* D
'Cause anyone who tells you they were born good is lying
[G]We're just born a[C]nd we are dying
Em7* D
And I know it's been said but mothers be good to your daughters
[G]And then they're older son[C]s be good to your fathers
Em7*
This is all we have
[D]This is all we are
[G]Blood and bones no Holy Ghost
[D]Empty from the start
[G]There's nothing you can do honey
Nothing you can do that would [C]save me
[G]There's nothing you can do honey
Nothing you can do but la[C]tely
[G]I don't mind
D*
'Cause I've been finding
[Am]The only thing worth loving more than m[C]e is loving you
Straight into Intro:
 
 e|-----------0----3---0-----------------------------------|
 B|---1---3----------------0---3-------3-----3-------3-----|
 G|----------------------------0-------------0-------------|
 D|---2------------------------4---4------4--4---4-----4---|
 A|---0-0---0---0--------------5-5---5-------5-5---5-------|
 E|----------------0-0---0---------------------------------|
 e|-----------0----3---0-----------------------------------|
 B|---1---3----------------0---3-------3-------------------|
 G|----------------------------0-------------4--5---4------|
 D|---2------------------------4---4------4--5-------------|
 A|---0-0---0---0--------------5-5---5---------------------|
 E|----------------0-0---0-------------------3--3---3------|
 e|-----------0----3---0-----------------------------------|
 B|---1---3----------------0---3-------3-------------------|
 G|----------------------------0-------------4--5---4------|
 D|---2------------------------4---4------4--5-------------|
 A|---0-0---0---0--------------5-5---5---------------------|
 E|----------------0-0---0-------------------3--3---3------|
 e|-----------------3---------------------------3----------|
 B|--------------------------------------------------------|
 G|---4-5------5--------4----4---------5------------5----5-|
 D|--------5----------------------5--------5---------------|
 A|--------------------------------------------------------|
 E|------3---3----3---3----3----3----3---3---3----3---3----| <-- You will have to use your thumb

for this string.

Important: The song above is NOT stored on the Chordie server. The original song is hosted at www.azchords.com. Chordie works as a search engine and provides on-the-fly formatting. Chordie does not index songs against artists'/composers' will. To remove this song please click here.

Text color:
Chord color:
Chord grids: 
Font size:    
Page size: 

Am C D G
Rate #1 of 1 versions

Login - add to songbook

SHARE PAGE  




You need to log in to post comments