Guitar Tabs, Chords and Lyrics
Server problems seems to be fixed. Chordie has been experiencing problems with songs disappearing. These issues now seems to be fixed, but still verifying the fix. If you find anything strange, please email admin@chordie.com.


Keep the Dream Alive   Oasis

 
 E----------------------------------------------|
 B----------------------------12----------------|
 G----8---9---8---9---8---9---------------------| x7
 D----------------------------------------------|
 A----------------------------------------------|
 E----------------------------------------------|
 E----------------------------------------------|
 B------------12--------------------------------|
 G----8---9-------------------------------------| x2
 D----------------------------------------------|
 A----------------------------------------------|
 E----------------------------------------------|

 


 


 VERSE


 


 Four seasons, seconds, flicker and flash Iâ??m alone


 A lonely scream provides the scene, itâ??s no home


 Every night I hear you scream


 But you donâ??t say what you mean


 this was my dream but now my dream is flown


 


 CHORUS


 


 Iâ??m no stranger to this place


 Where real life and dreams colide


 and even though i fall from grace


 I will keep the dream alive


 I will keep the dream alive


 


 

 
 E----------------------------------------------------|
 B----------------------------------------------------|
 G----11---13---11---13---14---14---14---14---13---11-| x2
 D----------------------------------------------------|
 A----------------------------------------------------|
 E----------------------------------------------------|
 E---------------------------------------------------------|
 B------------------------------------------------------12-|
 G----11---13---11---13---14---14---14---14---13---11------| x2
 D---------------------------------------------------------|
 A---------------------------------------------------------|
 E---------------------------------------------------------|
 E--------------------------------------------------------------|
 B-----------------------------14----------------------------12-|
 G----11---13---11---13---14--------14---14---14---13---11------| x2
 D--------------------------------------------------------------|
 A--------------------------------------------------------------|
 E--------------------------------------------------------------|
 E------------------------------------------------------------------------|
 B-----------------------------14----------------------------14---12---14-|
 G----11---13---11---13---14--------14---14---14---13---11----------------|
 D------------------------------------------------------------------------|
 A------------------------------------------------------------------------|
 E------------------------------------------------------------------------|

 


 x1


 

 
 E------------------------------------------------------------------------|
 B-----------------------------------------------------------12-----------|
 G----13---11---13---11---13---14---14---14---14---13---11----------------|
 D------------------------------------------------------------------------|
 A------------------------------------------------------------------------|
 E------------------------------------------------------------------------|

 


 


 noel starts singing:


 


 [na] [na] [na] [na] [na] [na] [na]  


 [na] [na] [na] [na] [na] [na] [na]  


 [na] [na] [na] [na] [na] [na] [na]  


 [na] [na] [na] [na] [na] [na] [na]  


 after that its like this:


 


 

 
 E------------------------------------------------------------------------|
 B----14---12--------14---12---12---14---14---12--------14---12-----------|
 G--------------11---------------------------------11---------------------| x4
 D------------------------------------------------------------------------|
 A------------------------------------------------------------------------|
 E------------------------------------------------------------------------|
 closing note: B---14-----


Important: The song above is NOT stored on the Chordie server. The original song is hosted at www.azchords.com. Chordie works as a search engine and provides on-the-fly formatting. Chordie does not index songs against artists'/composers' will. To remove this song please click here.

This song is displayed as text-only. Transposing and tuning is only available for chordpro-songs.
Rate #4 of 11 versions

Login - add to songbook

SHARE PAGE  




You need to log in to post comments