Guitar Tabs, Chords and Lyrics
Server problems seems to be fixed. Chordie has been experiencing problems with songs disappearing. These issues now seems to be fixed, but still verifying the fix. If you find anything strange, please email admin@chordie.com.


Slide Away  Oasis

Oasis
‚??Slide Away‚??
The first solo is tabbed but the second one is given vaguely as a I always just modify the bit that I have tabbed. Enjoy.
Gtr2 (mild dist)
 
 e----------|
 B----------|

G---5h7^^^-|
 
 D----------|
 A----------|

Gtr1 (mild dist)
 
 e-------3--0-----3----------0---------|
 B-------1----1-0---0------1-----------|
 G-------0---------------0-------------|
 D-------2-------------3---------------|
 A--0----------------------------------|
 E-------------------------------------|

after 2 repetitions of the Gtr1 riff:
Gtr2
 
 b--------------------------------------------------------------|
 g---7b---7‚??5------------------5-5------------------------------|
 d----------------7---------5h7-------7-----------7-------------|
 a---------------------5h7--------------------6b------0---------|

Verse 1
[Am7]Slide away - and giv[G]e it all you've[F] got
[Am7]My today - fell in f[G]rom the top[F]
[Am7]I dream of you - and[G] all the thing[F]s you say
[Am7]I wonder where you are now[G]? [F]
[Am7]Hold me down - all the [G]world's asleep[F]
[Am7]I need you now - you've [G]knocked me off my fe[F]et
[Am7]I dream of you - we ta[G]lk of growing old[F]
[Am7]But you said please don't ! [G] [F]
Here I use two chords that I know are chords but are not in any chord dictionaries.
G? (xx4033)
F? (xx0022)
Bridge
G? F? G? F?
Slide in baby - together we'll fly
G? F? G E
I've tried praying ‚?? but I don‚??t know what you‚??re saying to me
Chorus
Another obscure chord here:
Fmaj? (xx3230)
(E from bridge continues to C)
Now that you're m[C]ine
We'll find a [G]way
Fmaj?
Of chasing the sun
Let me be the [Am7]one
That shines [G]with you
D7 F?
In the morning when you don't know what to do
Two of a [C]kind
We'll find a [G]way
Fmaj?
To do what we've done
Let me be[Am7] the one that shines w[G]ith you
F? D7
And we can slide away.
F? D7 F? D7 G E
Slide away Slide away Awaaaaaaaay
After each ‚??slide away‚?? Gtr 2 plays:
 
 b----------------------|
 g---7b---7---5---------|
 d-----------------7----|

Solo. This solo begins with 4 short licks before a longer solo part at the end.
Lick 1
 
 e------------5----------------------------------|
 b---------------5-------------------------------|
 g---7b------------7---5----5h7---5--------------|
 d---------------------------------------5h7-----|

Lick 2
 
 e------------8---8h10p8---------------------|
 b---8h10------------------10---8---8h10-----|
 g-------------------------------------------|

Lick 3
 
 b--------------------------------------------|
 g---7b8---br7---5---5h7---5------------------|
 d--------------------------------5h7---------|

Lick4
 
 g--------7---------|
 d---6b------0~-----|

Solo part2
 
 b-----------------------------------------------------------|
 g---19----19b---17------------------------17---19-17---19b--|
 d-----------------------19----------17h19-------------------|
 a----------------------------17h19--------------------------|
 g---19b--19b--17-----------------------------------------------------------------|
 d------------------------19-----------17h19--17----------------------------------|
 a-----------------------------17h19----------------19---17-----------------------|
 E---------------------------------------------------------------20---17---15h17--|

Repeat the first half of verse 1 then repeat bridge and chorus.
Again after each ‚??slide away‚?? play:
 
 b----------------------|
 g---7b---7---5---------|
 d------------------7---|

Play this on Gtr2 after each ‚??slide away‚?? until 4:34 when you play:
 
 b--------------------------|
 g----------------5---7-5---|
 d----------5h7-------------|
 a---5h7--------------------|

Now swap between the two and adlib in extra notes.
If you do this well and in time it sounds and feels like playing a third gtr part with Noel and Bonehead. That‚??s how I do it anyway.
That‚??s the end of the song. This is the second song from the album that I have tabbed and I will certainly do more.
Enjoy.

Important: The song above is NOT stored on the Chordie server. The original song is hosted at www.azchords.com. Chordie works as a search engine and provides on-the-fly formatting. Chordie does not index songs against artists'/composers' will. To remove this song please click here.

Text color:
Chord color:
Chord grids: 
Font size:    
Page size: 

Am7 C F G
Rate #6 of 20 versions

Jango Player

Login - add to songbook

SHARE PAGE  



You need to log in to post comments