Guitar Tabs, Chords and Lyrics
Server problems seems to be fixed. Chordie has been experiencing problems with songs disappearing. These issues now seems to be fixed, but still verifying the fix. If you find anything strange, please email admin@chordie.com.


The Importance of Being Idle  Oasis

Intro: Am E (listen to song for strumming pattern)
[Am] (Play this while playing the Am)
 
 e|---------------------------------------------------------------|
 B|---------------------------------------------------------------|
 G|----------0-2--------------2-0---------------------------------|
 D|-----0-2-----------------------2-0-----------------------------|
 A|-----------------------------------3---------------------------|
 E|---------------------------------------------------------------|

[Am]I sold my soul for the second[Fmaj7] time
Cos th[C/G]e man, he don't[Bm7] pay[E] me
[Am]I begged my landlord for som[Fmaj7]e more time
He sai[C/G]d "Son, the bil[Bm7]ls wa[E]iting"
[Am]My best friend called me the [Fmaj7]other night
He s[C/G]aid "Man, are[Bm7] you [E]crazy?"
[Am]My girlfriend told me to ge[Fmaj7]t a life
[C/G]She said "boy, you lazy"
[Dm]But I don't[Am] mind
[Dm]As long as there's a bed beneath the s[Am]tars that shine[Dm]
I'll[Am] be fine
[Fmaj7]If you give me a minute
A mans got a limit
G E (Changing to E7 in this(listen to the song)
I cant get a life if your hearts' not in it
Solo: Am Fmaj7 C/G Bm7 E x4
 
 e|----------------------8--7------------------------------------------|
 B|---------------------------10-8---------8--10--8--------------------|
 G|-----7--9--7--------------------9----9------------9---8--9----------| x2
 D|-7------------10--7-------------------------------------------------|
 A|--------------------------------------------------------------------|
 E|--------------------------------------------------------------------|

hold bend
 
 e|--------------------------------------------------------------------|
 B|----------------------------------------------------20--------------|
 G|--19b21-19b21-19-17-----19b21-19b21-19-17-----19b21----21rb19-16-9--|
 D|--------------------19--------------------19------------------------|
 A|--------------------------------------------------------------------|
 E|--------------------------------------------------------------------|
 e|--------------------------------------------------------------------|
 B|------------------------------20------------------------------------|
 G|--19b21-19b21-19-17-----19b21----21rb19-19-16-----------------------|
 D|--------------------19----------------------------------------------|
 A|-----------------------------------------------19-19-19-19-19-19-19-|
 E|--------------------------------------------------------------------|

[Dm]But I don't[Am] mind
[Dm]As long as there's a bed beneath the s[Am]tars that shine[Dm]
I'll[Am] be fine
[Fmaj7]If you give me a minute
A mans got a limit
G E (Changing to E7 in this(listen to the song)
I cant get a life if your hearts' not in it
Repeat Intro: Am E
[Am]I lost my faith in the sum[Fmaj7]mertime
C[C/G]os it don't stop[Bm7] rai[E]ning
[Am]The sky all day's as black [Fmaj7]as night
[C/G]But I'm not co[Bm7]mpla[E]ining
[Am]I begged my doctor for one[Fmaj7] more line
[C/G]He said "Son, wor[Bm7]ds f[E]ail me"
[Am]It ain't no place to be killin[Fmaj7]g time
[C/G]But I guess I'm just[Bm7] laz[E]y
[Dm]But I don't[Am] mind
[Dm]As long as there's a bed beneath the s[Am]tars that shine[Dm]
I'll[Am] be fine
[Fmaj7]If you give me a minute
A mans got a limit
G E (Changing to E7 in this(listen to the song)
I cant get a life if your hearts' not in it
Outro: Am E

Important: The song above is NOT stored on the Chordie server. The original song is hosted at www.azchords.com. Chordie works as a search engine and provides on-the-fly formatting. Chordie does not index songs against artists'/composers' will. To remove this song please click here.

Text color:
Chord color:
Chord grids: 
Font size:    
Page size: 

Am Bm7 C/G Dm E Fmaj7
Rate #1 of 5 versions

Login - add to songbook

SHARE PAGE  




You need to log in to post comments