Guitar Tabs, Chords and Lyrics
Update 25:10. 13:00. Site is back up running again. Songbooks are recovered. Woring on getting search back up..


Love You Better  Oh Land

Tuning:Standard
No Capo, or Capo 2 and tranpose accordingly since those chord shapes seem easier
Chords used (picking):
Bm F#m D* / D* G D A Picking Pattern (general): Bass+2nd highest
note first mostly
 
 e|--2---2----0-------(2)--2------|-------------------------------------------|
 B|--3---2----3----5---0---3---2--|----------X--------------------------------|
 G|--4---2----2----7---0---2---2--|--X---X-------x----------------------------|
 D|--4---4----0----7---0---0---2--|----x---X---x---x--------------------------|
 A|--2---4---------5---2-------0--|-------------------------------------------|
 E|------2-------------3----------|--X-------X--------------------------------|

Intro:
 
 ------

[Bm] [F#m] [Bm]  
[Bm] [F#m] [Bm]  
 
 e|--2------------------------------------------------------------------------|
 B|-----------2----------------3----------------------------------------------|
 G|------4--------2----4---4--------------------------------------------------|
 D|----4---4----4---4----4---4------------------------------------------------|
 A|--2-----------------2------------------------------------------------------|
 E|-----------2---------------------------------------------------------------|

Verse:
 
 ------

D*
I will love you better
[G]Better when I??m old
[Bm]I will love you [F#m]better when I??m[G] old
I will w[Bm]rap my arms ar[D]ound you
And [F#m]keep you from the [G]cold
[Bm]I will love you [F#m]better when I??[Bm]m old
Verse 2:
 
 --------

D*
I will love you better
[G]Better when I??m blind
[Bm]I will love you [F#m]better when I??m[G] blind
??Cause you??[Bm]ll always be a b[D]eauty
[F#m]Living in my mi[G]nd
[Bm]I will love you [F#m]better when I??m[G] blind
Chorus:
 
 -------

When the [Bm]rain is falling on the roof
And the s[F#m]tars are hid from view
G A <- not 100% sure about that A chord but it
When the moon is just a scar of light sounds like it fits as a transition chord
And the s[D]ky, a purple [F#m]bruise
I will wa[Bm]it here in the window
??Ti[F#m]l you come back again
[Bm]I will love you bette[F#m]r then[Bm]
Verse 3:
 
 --------

D*
I will love you better
[G]Better when I??m gone
[Bm]I will love you [F#m]better when I??m[G] gone
You??ll be fil[Bm]ling out the[D] quiet
[F#m]Playing like a [G]song
[Bm]I will love you [F#m]better when I??[Bm]m gone
Chorus 2:
 
 ---------

When the [Bm]world is frozen over
And the o[F#m]ceans are on fire
When the [G]darkness over[A]powers light
And the a[D]ngels muted c[F#m]hoir
I will [Bm]hide here in the meadows
??Ti[F#m]l you find me again
[Bm]I will love you [F#m]better [Bm]then
Verse 4:
 
 --------

[D]I will love you best
[G]Best when I forget
[Bm]I will love you [F#m]best when I [G]forget
Cause you [Bm]made your [D]promises
Not a [F#m]one of them you [G]kept
[Bm]I will love you [F#m]best when I [Bm]forget, when I [D]forget
[Bm]I will love you [F#m]better t[Bm]hen

Important: The song above is NOT stored on the Chordie server. The original song is hosted at www.azchords.com. Chordie works as a search engine and provides on-the-fly formatting. Chordie does not index songs against artists'/composers' will. To remove this song please click here.

Text color:
Chord color:
Chord grids: 
Font size:    
Page size: 

A Bm D F#m G
Rate #1 of 3 versions

Login - add to songbook

SHARE PAGE  




You need to log in to post comments