Guitar Tabs, Chords and Lyrics
Server problems seems to be fixed. Chordie has been experiencing problems with songs disappearing. These issues now seems to be fixed, but still verifying the fix. If you find anything strange, please email admin@chordie.com.


Act My Age  One Direction

 
 |--------------------------------------------
 |--------------------------------------------
 |--------------------------------------------
 |-------------------------------2-2-2-2------
 |-----------0--0------------2-4---------4-2--
 |-0--0--2-4-------4-2-0--0-------------------
 |--------------------------------------------
 |--------------------------------------------
 |--------------------------------------------
 |-----------------------------2-1------------
 |-----------0--0------------2-----4-2-0------
 |-0--0--2-4-------4-2-0--0--------------4-2--
 |--------------------------------------------
 |--------------------------------------------
 |--------------------------------------------
 |-------------------------------2-----2------
 |-----------0--0------------2-4---4-2---4-2--
 |-0--0--2-4-------4-2-0--0-------------------
 |--------------------------------------------
 |-----------------------------------------5--
 |-------------------------------------4-6----
 |-------------------------------2-4-6--------
 |-----------0--0------------2-4--------------
 |-0--0--2-4-------4-2-0--0-------------------

[E]When I'm fat and old and my [A]kids think I'm a [E]joke
Cause I [A]move a little [E]slow, when I [B]dance
[E]I can count on you, after [D#m7]all we've been t[G#]hrough
Cause I [C#m]know that you'll a[F#]lways underst[B]and
I [A]won't act my [E]age, no I[C#m] won't act my a[B]ge
No, I'll [A]still feel the [E]same around [B]you
Hey!
 
 |--------------------------------------------
 |--------------------------------------------
 |--------------------------------------------
 |-------------------------------2-2-2-2------
 |-----------0--0------------2-4---------4-2--
 |-0--0--2-4-------4-2-0--0-------------------
 |--------------------------------------------
 |--------------------------------------------
 |--------------------------------------------
 |-----------------------------2-1------------
 |-----------0--0------------2-----4-2-0------
 |-0--0--2-4-------4-2-0--0--------------4-2--

[E]When I'm fat and old and m[A]y kids think I'm [E]a joke
'Cause the [A]stories that I [E]told
I tell a[B]gain and again
[E]I can count on you, after [D#m7]all we got up t[G#]o
'Cause I [C#m]know that you t[F#]ruly underst[B]and
I [A]won't act my [E]age, no I[C#m] won't act my a[B]ge
No, I'll [A]still feel the [E]same around [B]you
I [A]won't act my [E]age, no I[C#m] won't act my a[B]ge
No, I'll [A]still feel the [E]same and you will [B]too
Hey!
 
 |--------------------------------------------
 |--------------------------------------------
 |--------------------------------------------
 |-------------------------------2-2-2-2------
 |-----------0--0------------2-4---------4-2--
 |-0--0--2-4-------4-2-0--0-------------------
 |--------------------------------------------
 |--------------------------------------------
 |--------------------------------------------
 |-----------------------------2-1------------
 |-----------0--0------------2-----4-2-0------
 |-0--0--2-4-------4-2-0--0--------------4-2--
 |--------------------------------------------
 |--------------------------------------------
 |--------------------------------------------
 |-------------------------------2-----2------
 |-----------0--0------------2-4---4-2---4-2--
 |-0--0--2-4-------4-2-0--0-------------------
 |--------------------------------------------
 |-----------------------------------------5--
 |-------------------------------------4-6----
 |-------------------------------2-4-6--------
 |-----------0--0------------2-4--------------
 |-0--0--2-4-------4-2-0--0-------------------

[C#m] When I can hardly walk and my [F#m]hair is falling out
[A] We'll still stay up 'till morning
[A#m7] We'll throw the after party
[B]Oh yeah, Oh yeah
I [A]won't act my [E]age, no I[C#m] won't act my a[B]ge
No, I'll [A]still feel the [E]same around [B]you
I [A]won't act my [E]age, no I[C#m] won't act my a[B]ge
No, I'll [A]still feel the [E]same and you will [B]too...
Hey!
[E]Na na [A]na na [E]na na n[B]a na
[E]Na na [A]na na [E]na na n[B]a na
[E]Na na [A]na na [E]na na n[B]a na
[E]Na na [A]na na [E]na na na na

Important: The song above is NOT stored on the Chordie server. The original song is hosted at www.azchords.com. Chordie works as a search engine and provides on-the-fly formatting. Chordie does not index songs against artists'/composers' will. To remove this song please click here.

Text color:
Chord color:
Chord grids: 
Font size:    
Page size: 

A A#m7 B C#m D#m7 E F# F#m G#
Rate #1 of 1 versions

Jango Player

Login - add to songbook

SHARE PAGE  



You need to log in to post comments