Guitar Tabs, Chords and Lyrics
Update 25:10. 13:00. Site is back up running again. Songbooks are recovered. Woring on getting search back up..


Gi meg noe dritt  Oslo Ess

Det kan være litt vrient å finne ut av takten/rytmen i sangen, men
det hjelper å høre gjennom nok ganger :)
Intro:
C-GGGG... (C-en varer 1/16. For å rekke å bytte fort nok er det lurt
å spille G-en med lang-, ring- og pekefingeren. Vises tydelig i
videoen hvordan ?smund gjør det)
[G]Sola tar med seg a[C]lt, når hun s[C]tuper [G]ned i O[D]slofjor[G]den
og d[G]ag blir na[C]tt, hv[C]or skal v[G]i ta ve[D]ien, b[G]ror?
Jeg v[G]eit det har sin sj[C]arm å være [C]blakk en[G] gang[D] iblant
men nå[G] er det [G]jævelig [C]stramt
Det finnes al[C]ltid ve[G]ier f[D]or en f[G]ant (kjør!)
REF:
[C]Gi meg noe dr[G]itt så jeg kan [D]føle meg vel,
C G D-Dsus4-D-Dsus4...
har aldri likt å se verden ifra toppen
Og jeg [C]velger å gå[G] bakover nå[D]r andre går fram,
for det går for [C]fort rundt for[G] meg
Em D C-GGG...
Jeg tror jeg snurrer andre vei (og stopp)
Det er t[G]omt i posen ig[C]jen,
vi har nok ka[C]nskje t[G]att den b[D]itteli[G]tt for l[G]angt i[C]gjen
Men jeg k[C]jenner [G]denne [D]rken[G]en,
jeg har p[G]ukkelen full av g[C]atevisdom,
er g[C]odt trent t[G]il å [D]ta oss [G]gjennom [G]tørke[C]n her
Jeg skal t[C]a oss g[G]jennom a[D]ll slags [G]vær
REF
L[Em]ongyear[D]byen, t[C]yve m[G]in,
[Em]venter [D]på en s[C]ørle[G]nding
Han skulle k[Em]omme m[D]ed en b[C]illig [G]vin,
[Em]syklend[D]e på [C]sykkelen [G]din[(D)]
|:Em D C G:| x4
Na-na-na...
Etter dette verset spilles de samme akkordene fire ganger til,
med en solo over de første tre taktene:
 
 E|--------------------------7-7--------------------------------|
 B|-8--8-8---7-7-7---5-5-5---8-8--------------------------------|
 G|-9--9-9---7-7-7---5-5-5--------------------------------------|
 D|-------------------------------------------------------------|
 A|-------------------------------------------------------------|
 E|-------------------------------------------------------------|
 E|-------------------------------------------------------------|
 B|-8--8-8---7-7-7---5-5-5---3-4-------------------------- -----|
 G|-9--9-9---7-7-7---5-5-5---3-4--------------------------------|
 D|-------------------------------------------------------------|
 A|-------------------------------------------------------------|
 E|-------------------------------------------------------------|
 E|--------------------------7-7--------------------------------|
 B|-8--8-8---7-7-7---5-5-5---8-8--------------------------------|
 G|-9--9-9---7-7-7---5-5-5--------------------------------------|
 D|-------------------------------------------------------------|
 A|-------------------------------------------------------------|
 E|-------------------------------------------------------------|

I den siste takten av dette verset:
Jeg tror jeg s[Em]nurree[Dsus4]eer a[D]ndre
C-GGGG...
vei
Outro
C-GGGG...

Important: The song above is NOT stored on the Chordie server. The original song is hosted at www.azchords.com. Chordie works as a search engine and provides on-the-fly formatting. Chordie does not index songs against artists'/composers' will. To remove this song please click here.

Text color:
Chord color:
Chord grids: 
Font size:    
Page size: 

C D Dsus4 Em G
Rate #1 of 3 versions

Login - add to songbook

SHARE PAGE  




You need to log in to post comments