Guitar Tabs, Chords and Lyrics
Server problems seems to be fixed. Chordie has been experiencing problems with songs disappearing. These issues now seems to be fixed, but still verifying the fix. If you find anything strange, please email admin@chordie.com.


Not All Heroes Wear Capes  Owl City

[Intro] 
[G1]  
 
 d|---------------------0-x-----0-x-----0-x------x--|----0-x-----0-x-----0-x------x--|
 B|---------------------3-x-----3-x-----3-x------x--|----3-x-----3-x-----3-x------x--|
 G|---------------------2-x-----2-x-----2-x----2-x--|----2-x-----2-x-----2-x----2-x--|
 D|--2/4--2p0--------0----x-------x-------x----2-x--|-0----x-------x-------x----2-x--|
 A|------------2-0--------x-------x-------x--0---x--|------x-------x-------x--0---x--|
 E|-----------------------x--3----x--3----x------x--|------x--3----x--3----x------x--|

[G2]  
 
 d|---------------------------------------|------------------------------------------|
 B|-----5/7--5/3--------5/7--5/3--2-3-2---|-5/7--5/3-----------7h8p7-----------------|
 G|-------------4-4/7------------------2--|-----------2-4-4/7--------7-----7/9~---7--|
 D|---------------------------------------|----------------------------9-7-----------|
 A|---------------------------------------|------------------------------------------|
 E|---------------------------------------|------------------------------------------|

[G1]  
 
 d|-------------------|
 B|-------------------|
 G|-------------------|
 D|--2/4--2p0---------|
 A|------------2-0----|
 E|-------------------|

[Verse] 
[G1]  
 
 d|----0-x-----0-x-----0-x------x--|----0-x-----0-x-----0-x------x--|
 B|----3-x-----3-x-----3-x------x--|----3-x-----3-x-----3-x------x--|
 G|----2-x-----2-x-----2-x----2-x--|----2-x-----2-x-----2-x----2-x--|
 D|-0----x-------x-------x----2-x--|-0----x-------x-------x----2-x--|2x
 A|------x-------x-------x--0---x--|------x-------x-------x--0---x--|
 E|------x--3----x--3----x------x--|------x--3----x--3----x------x--|

then Do intro then Verse
G2 (01:29)
 
 d|--/4-----4-------------0-----0-----|--4-----4-------------0-----0-----|
 B|-----0-----0-------0-----0---------|----0-----0-------0-----0---------|
 G|-------2-----2-4-----2-----2---4/6-|------2-----2-4-----2-----2---4/6-|
 D|-----------------------------------|----------------------------------|
 A|-----------------------------------|----------------------------------|
 E|-----------------------------------|----------------------------------|

[Cborus] 
[G1]  
 
 d|---0------------0------------0-------------0--------| |--0-----0----4---2---------------0------|
 B|---3------------3------------3-------------3--------| |--3-----0----3---3---3---2---3---2------|
 G|---0------------2------------2-------------2--------| |--0-----4----2---2---4---2---0---2------|
 D|---0------------2------------0-------------0--------|2x |--0-----7----0---x---4---2---0---2------|
 A|---2------------0------------x-------------2--------| |--2-----7--------4---2---0---2---0------|
 E|---3-------------------------2----------------------| |--3-----5--------------------3-----------|

[G2]  
 
 d|------0-----0------0--0------0---0---0---0---0--0---| |-----0-----0------0--0---0-0-0-0-0-0---|
 B|--0-----0-------------------------------------------| |-0----0------------------0-0-0-0-0-0---|
 G|----2-----2----4/6--6------9---9---9---9---6--------| |---2-----2----4/6--6----11-9-7-6-4-6---|
 D|-------------------------7----7---7---7-------7-----|2x |---------------------------------------|
 A|----------------------------------------------------| |---------------------------------------|
 E|----------------------------------------------------| |---------------------------------------|

[Solo] Based on the album version
 
 e|--------------------------------------|----------------------------------------|
 B|--------------------------------------|----------------------------------------|
 G|--------------------------------------|----------------------------------------|
 D|--------------------------------------|-------------------------------7/9------|
 A|-/9-9-9--7-7-7-7--5-----------5-7/9-7-|-/9-9-9--7-7-7-7--5----------5-----7----|
 E|---------------------7-5--5-7---------|--------------------7-5--5-7------------|
 e|---------------------------------------------|-------------------------------------------|
 B|---------------------------------------------|-------------------------------------------|
 G|-----7-----7---7-9/11--------7--9/11-9---7---|-/11-11-11--9-9-9-9--7------------7--------|
 D|-4h5---7h9---9----------/7-9-----------------|------------------------9-7---7-9----9/7---|
 A|---------------------------------------------|-----------------------------------------7-|
 E|---------------------------------------------|-------------------------------------------|

Chords
"Not All Heroes Wear Capes"
[Intro] 
D G G A 2X
[VERSE] 
[D]He doesn't [G]fight crime or[G] wear a c[A]ape
[D]He doesn't [G]read minds or[G] levi[A]tate
[D]But every time my wo[G]rld needs saving,[G] he's my superm[A]an
[D]Some folks [G]don't believe in heroes 'c[G]ause they haven't met my [A]dad
D G G A 2X
[D]He loves his w[G]orkshop a[G]nd rock a[A]nd roll
[D]He's got a [G]hot rod and[G] a heart of g[A]old
[D]And you could say he's a[G] man of few words,[G] but he t[A]alks a lot within
[D]And even though I'm a[G] little taller, I[G] still look [A]up to him
[CBORUS] 
[G]He built me a ho[A]use in the [D/F#]arms of a [D/B]tree
[G]He taught me to [A]drive, and [D/F#]to fight, and to[D/B] dream
[G]When he looks in[A] my eyes I [D]hope[A/C#] he ca[Bm]n s[A]ee
[G]That my dad's a h[A]ero to me
D G G A 2X
[VESRSE] 
[D]Rust-ridden fe[G]nders, an[G]d doors f[A]ull of dings
[D]Somehow he can[G] fix abou[G]t anythin[A]g
[D]I didn't think he kn[G]ew how to cry t[G]ill our d[A]og died that year
[D]He doesn't always say[G] I love you, bu[G]t I can h[A]ear him loud and clear
[CBORUS] 
[G]He built me a ho[A]use in the [D/F#]arms of a [D/B]tree
[G]He taught me to [A]drive, and [D/F#]to fight, and to[D/B] dream
[G]When he looks in[A] my eyes I [D]hope[A/C#] he ca[Bm]n s[A]ee
[G]That my dad's a h[A]ero to me
[SOLO] 
D G G A4X
[CBORUS] 
[G]He built me a ho[A]use in the [D/F#]arms of a [D/B]tree
[G]He taught me to [A]drive, and [D/F#]to fight, and to[D/B] dream
[G]When he looks in[A] my eyes I [D]hope[A/C#] he ca[Bm]n s[A]ee
[G]That my dad's a h[A]ero to me
[OUTRO] 
D G A G 4X
My dad's a hero to me
My dad's a hero to me
[D]END

Important: The song above is NOT stored on the Chordie server. The original song is hosted at www.azchords.com. Chordie works as a search engine and provides on-the-fly formatting. Chordie does not index songs against artists'/composers' will. To remove this song please click here.

Text color:
Chord color:
Chord grids: 
Font size:    
Page size: 

A A/C# Bm D D/B D/F# G G2
Rate #1 of 1 versions

Login - add to songbook

SHARE PAGE  




You need to log in to post comments