Guitar Tabs, Chords and Lyrics
Major upgrade!! After one year development the new version of Chordie is now online! Please give feedback.


Swept Away   Paolo Santos

 
 |---------------------------------------------|
 |--6----7----6----7----4----7-----4-----7-----|
 |--6--6---6-----6---6--4--4---4------4----4---|
 |---------------------------------------------|
 |--8---------8---------6----------6-----------|
 |---------------------------------------------|
 |---------------------------------------------|
 |--6----7-----6----7-----4-----7-----4------2-|
 |--6--6---6------6---6---4---4---4------4---3-|
 |---------------------------------------------|
 |--8----------8----------6-----------6------4-|
 |---------------------------------------------|
 |-------------------2-------------------------------|
 |--------2----------2--------------2-----------2----|
 |--3--------3--3-------3-----4-------4---4--------4-|
 |--4--4-----------4----------4--4-----------4-------|
 |--4-----------4----4--------2-----------2----------|
 |---------------------------------------------------|
 |-------------------2-------------------------------|
 |--------2----------2--------------2-----------2----|
 |--3--------3--3-------3-----4-------4---4--------4-|
 |--4--4-----------4----------4--4-----------4-------|
 |--4-----------4----4--------2-----------2----------|
 |---------------------------------------------------|
 STANZA 1: C#/F#----,C#/F#--,B/Eb--,F#/C#--,B--,F#/C#--,B--
 C#/F#--,B/Eb--,C#/F#--,B/Eb--,F#/C#--,B--,F#/C#--,B--
 |--------------------------------------------------------------------|
 |-------6-------6-------6-------6----------6-------6-------4-------4-|
 |-----6-------6-------6-------6----------6-------6-------4-------4---|
 |---6-------6-------6-------6----------6-------6-------4-------4-----|
 |-8-------8-------8-------8----------8-------8-------6-------6-------|
 |--------------------------------------------------------------------|
 |--------------------------------------------------------------------|
 |-------2-------2-------2-------2--------2-------2--------2-------2--|
 |-----3-------3-------4-------4------3-----3-3--------4-----4--4---4-|
 |---4-------4-------4-------4--------4-4-------4---3--4-4--------4---|
 |-4-------4-------2-------2----------4-------4--------2--------2-----|
 |--------------------------------------------------------------------|
 |--------------------------------------------------------------------|
 |-------6-------6-------4-------4----------6-------6-------4-------4-|
 |-----6-------6-------4-------4----------6-------6-------4-------4---|
 |---6-------6-------4-------4----------6-------6-------4-------4-----|
 |-8-------8-------6-------6----------8-------8-------6-------6-------|
 |--------------------------------------------------------------------|
 |--------------------------------------------------------------------|
 |-------2-------2-------2-------2---------2-------2--------2------2--|
 |-----3-------3-------4-------4---------3-------3----4---4-------4---|
 |---4-------4-------4-------4---------4-------4------4-4-------4-----|
 |-4-------4-------2-------2---------4-------4--------2-------2-------|
 |--------------------------------------------------------------------|
 CHORUS 1: F#--C#--B--F#--B/EB--
 F#/C#--C#--F#--C#--B

 


 [C#-F#-B]  


 I was swept away.....


 

 
 |-------------------------------------------------------------------|
 |--------2-------2------------------------4-------4------2-2---2----|
 |------3-------3--------6-6----6--------4-------4-------------------|
 |----4-------4--------6----------6----4-------4--------4---------2--|
 |-------------------4-------4-------2-------2-----------------------|
 |--2-------2-----------------------------------------2-------2------|
 |------------------------------------------------------------|
 |--------4-------4-------2-------2-------4-------4-----------|
 |------4-------4-------3-------3-------6-------6-------------|
 |----4-------4-------4-------4-------6-------6---------------|
 |--6-------6-------4-------4-------4-------4-----------------|
 |------------------------------------------------------------|

 


 I was..


 

 
 |-----------------------------------------------4--9---------------2-|
 |-------2-------2----------------------4--------4—-9--------2------2-|
 |-----3-------3-------6-6----6-------4-----4----6--11------4----4--4-|
 |---4-------4-------6----------6---4---------4--6--11----4-------4-4-|
 |-----------------4-------4------2-------2------4--9---2------2----2-|
 |-2-------2----------------------------------------------------------|

 


 


 STANZA 2:


 


 

 
 |---------------------------------------------|
 |--6----7----6----7----4----7-----4-----7-----|
 |--6--6---6-----6---6--4--4---4------4----4---|
 |---------------------------------------------|
 |--8---------8---------6----------6-----------|
 |---------------------------------------------|

 


 And so it begins...


 

 
 |---------------------------------------------|
 |--6----7----6----7----4----7-----4-----7-----|
 |--6--6---6-----6---6--4--4---4------4----4---|
 |---------------------------------------------|
 |--8---------8---------6----------6-----------|
 |---------------------------------------------|
 |---------------------------------------------|
 |--6----7----6----7----4----7-----4-----7-----|
 |--6--6---6-----6---6--4--4---4------4----4---|
 |---------------------------------------------|
 |--8---------8---------6----------6-----------|
 |---------------------------------------------|

 


 The words of a...


 

 
 |-------------------------------------------------------------------|
 |-------2-------2-------2-------2--------2-------2-------2-------2--|
 |-----3-------3-------4-------4--------3-------3---4---4-------4----|
 |---4-------4-------4-------4--------4-------4-----4-4-------4------|
 |-4-------4-------2-------2--------4-------4-------2-------2--------|
 |-------------------------------------------------------------------|
 |--------------------------------------------------------------------|
 |-------6-------6-------4-------4----------6-------6-------4-------4-|
 |-----6-------6-------4-------4----------6-------6-------4-------4---|
 |---6-------6-------4-------4----------6-------6-------4-------4-----|
 |-8-------8-------6-------6----------8-------8-------6-------6-------|
 |--------------------------------------------------------------------|
 |--------------------------------------------------------------------|
 |-------2-------2-------2-------2---------2-------2--------2------2--|
 |-----3-------3-------4-------4---------3-------3----4---4-------4---|
 |---4-------4-------4-------4---------4-------4------4-4-------4-----|
 |-4-------4-------2-------2---------4-------4--------2-------2-------|
 |--------------------------------------------------------------------|

 


 


 CHORUS 2:


 i was swept away.....


 

 
 |-------------------------------------------------------------------|
 |--------2-------2------------------------4-------4------2-2---2----|
 |------3-------3--------6-6----6--------4-------4-------------------|
 |----4-------4--------6----------6----4-------4--------4---------4--|
 |-------------------4-------4-------2-------2-----------------------|
 |--2-------2-----------------------------------------2-------2------|
 |------------------------------------------------------------|
 |--------4-------4-------2-------2-------4-------4-----------|
 |------4-------4-------3-------3-------6-------6-------------|
 |----4-------4-------4-------4-------6-------6---------------|
 |--6-------6-------4-------4-------4-------4-----------------|
 |------------------------------------------------------------|

 


 I was...


 

 
 |-----------------------------------------------4--9---------------2-|
 |-------2-------2----------------------4--------4—-9--------2------2-|
 |-----3-------3-------6-6----6-------4-----4----6--11------4----4--4-|
 |---4-------4-------6----------6---4---------4--6--11----4-------4-4-|
 |-----------------4-------4------2-------2------4--9---2------2----2-|
 |-2-------2----------------------------------------------------------|

 


 


 away, away......


 

 
 |----------------------------------------------------------------------|
 |---2------------2-------2---------------------4-------4-----2-2---2---|
 |-----4--------3-------3-------6-6---6-------4-------4-----------------|
 |-------4----4-------4-------6---------6---4-------4-------4---------4-|
 |-2------------------------4-------4-----2-------2---------------------|
 |----------2-------2-------------------------------------2-------2-----|
 |--2-------4---------------2------------------------------------------|
 |--2-------4---------------2--------------2---------------2-----------|
 |--4-------6-----------3-----3---3--4---4-----4---4-3---3-----3---3---|
 |--4-------6---------4---4-----4------4---------4-----4---------4-----|
 |--2-------4------------------------2-------2-------------------------|
 |------------------2--------------------------------2-------2---------|

 


 


 Stanza 3:


 oohh.... i hope i wake up


 

 
 |--------------------------------------------------------------------|
 |-------2---------------2----------------2-------2-------2-------2---|
 |-4---4-----4---4-3---3---3---3--------3-------3-------3-------3-----|
 |---4---------4-----4-------4--------4-------4-------4-------4-------|
 |-2-------2------------------------4-------4-------4-------4---------|
 |-----------------2--------------------------------------------------|

 


 soon..... oohh i'm a victim of that crazy moon


 

 
 |-------2---------------2---------------------------------------------4-|
 |-------2-------2-------2-------2-------6-------6-------6-------6-4---4-|
 |-----4-------4-------4-------4-------6-------6-------6-------6---4---6-|
 |---4-------4-------4-------4-------6-------6-------6-------6-----4---6-|
 |-2-------2-------2-------2-------8-------8-------8-------8-------6---4-|
 |-----------------------------------------------------------------------|

 


 The very first time...


 

 
 |--------------------------------------------------------------------|
 |-------6-------6-------4-------4----------6-------6-------4-------4-|
 |-----6-------6-------4-------4----------6-------6-------4-------4---|
 |---6-------6-------4-------4----------6-------6-------4-------4-----|
 |-8-------8-------6-------6----------8-------8-------6-------6-------|
 |--------------------------------------------------------------------|
 |--------------------------------------------------------------------|
 |-------2-------2-------2-------2---------2-------2--------2------2--|
 |-----3-------3-------4-------4---------3-------3----4---4-------4---|
 |---4-------4-------4-------4---------4-------4------4-4-------4-----|
 |-4-------4-------2-------2---------4-------4--------2-------2-------|
 |--------------------------------------------------------------------|

 


 


 


 Chorus:


 


 I was swept away...


 

 
 |-------------------------------------------------------------------|
 |--------2-------2------------------------4-------4------2-2---2----|
 |------3-------3--------6-6----6--------4-------4-------------------|
 |----4-------4--------6----------6----4-------4--------4---------4--|
 |-------------------4-------4-------2-------2-----------------------|
 |--2-------2-----------------------------------------2-------2------|
 |------------------------------------------------------------|
 |--------4-------4-------2-------2-------4-------4-----------|
 |------4-------4-------3-------3-------6-------6-------------|
 |----4-------4-------4-------4-------6-------6---------------|
 |--6-------6-------4-------4-------4-------4-----------------|
 |------------------------------------------------------------|

 


 I was swept


 

 
 |-----------------------------------------------4--9---------------2-|
 |-------2-------2----------------------4--------4--9--------2------2-|
 |-----3-------3-------6-6----6-------4-----4----6--11------4----4--4-|
 |---4-------4-------6----------6---4---------4--6--11----4-------4-4-|
 |-----------------4-------4------2-------2------4--9---2------2----2-|
 |-2-------2----------------------------------------------------------|

 


 


 away,.. away....


 

 
 |----------------------------------------------------------------------|
 |---2------------2-------2---------------------4-------4-----2-2---2---|
 |-----4--------3-------3-------6-6---6-------4-------4-----------------|
 |-------4----4-------4-------6---------6---4-------4-------4---------4-|
 |-2------------------------4-------4-----2-------2---------------------|
 |----------2-------2-------------------------------------2-------2-----|

 


 


 Got a find a way.. I was..swept


 

 
 |---------------------------------------------------------------------|
 |--------2-------2--------2-------2--------4-------4--------2-------2-|
 |------4-------4--------3-------3--------6-------6--------3-------3---|
 |----4-------4--------4-------4--------6-------6--------4-------4-----|
 |--2-------2--------4-------4--------4-------4------------------------|
 |-----------------------------------------------------2-------2-------|

 


 away..


 

 
 |-------------------------------4-----9-----------------------|
 |-----------------------2-------4-----9-----------------------|
 |-----6-6----6--------4---4-----6-----11----------------------|
 |---6----------6----4-------4---6-----11----------------------|
 |-4-------4-------2-------------4-----9-----------------------|
 |-------------------------------------------------------------|

 


 i was swept away you were swept


 

 
 |---------------------------------------------------------------------|
 |-------2-----2----------2-----2----------2-------2-------2-------2---|
 |-----4---4-----4------4---4-----4------3-------3-------3-------3 -----|
 |---4-------4--------4-------4--------4-------4-------4-------4-------|
 |-2----------------2----------------4-------4-------4-------4---------|
 |---------------------------------------------------------------------|

 


 away i was swept.. away i was swept


 

 
 |-----------------------------------------------------------2---2---4--|
 |-------2-----------2-------------2--2-------------2--2-----2---2---4--|
 |-----4---4-----------4--------3---3---3--------3---3--3----4---3---6--|
 |---4-------4---4-------4----4-----------4----4----------4--4---4---6--|
 |-2-----------2------------4----------------4---------------2---4---4--|
 |----------------------------------------------------------------------|

 


 


 Outro:


 away...........


 

 
 |---------------------------------------------|
 |--6----7----6----7----4----7-----4-----7-----|
 |--6--6---6-----6---6--4--4---4------4----4---|
 |---------------------------------------------|
 |--8---------8---------6----------6-----------|
 |---------------------------------------------|
 |-------------------------------------------2-|
 |--6----7-----6----7-----4-----7-----4------2-|
 |--6--6---6------6---6---4---4---4------4---3-|
 |-------------------------------------------4-|
 |--8----------8----------6-----------6------4-|
 |-------------------------------------------2-|


Important: The song above is NOT stored on the Chordie server. The original song is hosted at www.azchords.com. Chordie works as a search engine and provides on-the-fly formatting. Chordie does not index songs against artists'/composers' will. To remove this song please click here.

This song is displayed as text-only. Transposing and tuning is only available for chordpro-songs.
Rate #1 of 1 versions

Jango Player

Login - add to songbook

SHARE PAGE  




You need to log in to post comments