Guitar Tabs, Chords and Lyrics
Server problems seems to be fixed. Chordie has been experiencing problems with songs disappearing. These issues now seems to be fixed, but still verifying the fix. If you find anything strange, please email admin@chordie.com.


Ainâ??t It Fun   Paramore

 
 d#|----------------|
 A#|----------------|
 F#|----4h5-----4h5-|
 C#|-7-------7------|(x2)
 G#|---8-------8----|
 C#|----------------|
 d#|----------------|
 A#|----------------|
 F#|------5--7--7---|
 C#|-7--------------|
 G#|----8-----------|
 C#|----------------|

 


 


 [Verse 1] (0:09)


 

 
 d#|----------------|
 A#|----------------|
 F#|----4h5-----4h5-|
 C#|-7-------7------|(x4)
 G#|---8-------8----|
 C#|----------------|
 d#|----------------|
 A#|-6--------------|
 F#|-----7--5h7-----|
 C#|----------------|
 G#|----------------|
 C#|----------------|
 d#|----------------|
 A#|----------------|
 F#|----4h5-----4h5-|
 C#|-7-------7------|(x3)
 G#|---8-------8----|
 C#|----------------|
 d#|----------------|
 A#|----------------|
 F#|----4h5---------|
 C#|-7--------------|
 G#|---8------------|
 C#|----------------|

 


 


 [Break] (0:28)


 Does not play


 


 [Guitar comes in] (0:33)


 

 
 d#|----------------|
 A#|----------------|
 F#|----4h5-----4h5-|
 C#|-7-------7------|(x2)
 G#|---8-------8----|
 C#|----------------|

 


 


 [Break] (0:37)


 Does not play


 


 [Guitar comes in] (0:42)


 

 
 d#|----------------|
 A#|----------------|
 F#|----4h5-----4h5-|
 C#|-7-------7------|
 G#|---8-------8----|
 C#|----------------|
 d#|----------------|
 A#|----------------|
 F#|------5--7--7---|
 C#|-7--------------|
 G#|----8-----------|
 C#|----------------|

 


 


 [Cborus 1] (0:46)


 

 
 d#|----------------|--------------------|
 A#|----------------|--------------------|
 F#|----------------|--------------------|
 C#|-8-8-8-8-8-8-8-8|-12-12-12-12-3-3-3-3| (x4)
 G#|-8-8-8-8-8-8-8-8|-12-12-12-12-3-3-3-3|
 C#|-8-8-8-8-8-8-8-8|-12-12-12-12-3-3-3-3|

 


 


 [Verse 2] (1:05)


 

 
 d#|----------------|
 A#|----------------|
 F#|----4h5-----4h5-|
 C#|-7-------7------|(x4)
 G#|---8-------8----|
 C#|----------------|
 d#|----------------|
 A#|-6--------------|
 F#|-----7--5h7-----|
 C#|----------------|
 G#|----------------|
 C#|----------------|
 d#|----------------|
 A#|----------------|
 F#|----4h5-----4h5-|
 C#|-7-------7------|(x3)
 G#|---8-------8----|
 C#|----------------|
 d#|-5--------8p5---|
 A#|----8--6--------|
 F#|----------------|
 C#|----------------|
 G#|----------------|
 C#|----------------|

 


 


 [Break] (1:24)


 Does not play


 


 [Guitar comes in] (1:28)


 

 
 d#|----------------|
 A#|----------------|
 F#|----4h5-----4h5-|
 C#|-7-------7------|(x2)
 G#|---8-------8----|
 C#|----------------|

 


 


 [Break] (1:32)


 Does not play


 


 [Guitar comes in] (1:38)


 

 
 d#|----------------|
 A#|----------------|
 F#|----4h5-----4h5-|
 C#|-7-------7------|
 G#|---8-------8----|
 C#|----------------|
 d#|----------------|
 A#|----------------|
 F#|------5--7--7---|
 C#|-7--------------|
 G#|----8-----------|
 C#|----------------|

 


 


 [Cborus 2] (1:42)


 

 
 d#|----------------|----------------|
 A#|----------------|----------------|
 F#|----------------|---------5-5-5-5|
 C#|-8-8-8-8-8-8-8-8|-3-3-3-3-5-5-5-5| (x2)
 G#|-8-8-8-8-8-8-8-8|-3-3-3-3-3-3-3-3|
 C#|-8-8-8-8-8-8-8-8|-3-3-3-3--------|
 d#|----------------|--------------------|
 A#|----------------|--------------------|
 F#|----------------|--------------------|
 C#|-8-8-8-8-8-8-8-8|-12-12-12-12-3-3-3-3| (x2)
 G#|-8-8-8-8-8-8-8-8|-12-12-12-12-3-3-3-3|
 C#|-8-8-8-8-8-8-8-8|-12-12-12-12-3-3-3-3|

 


 


 [Bridge] (2:19)


 *PALM MUTED FOR THE WHOLE SECTION*


 

 
 d#|----------------|----------------|
 A#|----------------|----------------|
 F#|----------------|----------------|
 C#|-3-3-3-3-3-3-3-3|-3-3-3-3-3-3-3-3| (x3)
 G#|-3-3-3-3-3-3-3-3|-3-3-3-3-3-3-3-3|
 C#|-3-3-3-3-3-3-3-3|-3-3-3-3-3-3-3-3|
 d#|----------------|--------------------|
 A#|----------------|--------------------|
 F#|----------------|--------------------|
 C#|-3-3-3-3-3-3-3-3|-3-3-3-3-12-12-10-10|
 G#|-3-3-3-3-3-3-3-3|-3-3-3-3-12-12-10-10|
 C#|-3-3-3-3-3-3-3-3|-3-3-3-3-12-12-10-10|
 d#|----------------|
 A#|----------------|
 F#|----------------|
 C#|-8-8-8-8-8-8-8-8| (x2)
 G#|-8-8-8-8-8-8-8-8|
 C#|-8-8-8-8-8-8-8-8|
 d#|----------------|--------------------|
 A#|----------------|--------------------|
 F#|----------------|--------------------|
 C#|-3-3-3-3-3-3-3-3|-3-3-3-3-12-12-10-10|
 G#|-3-3-3-3-3-3-3-3|-3-3-3-3-12-12-10-10|
 C#|-3-3-3-3-3-3-3-3|-3-3-3-3-12-12-10-10|
 d#|----------------|
 A#|----------------|
 F#|----------------|
 C#|-8-8-8-8-8-8-8-8| (x2)
 G#|-8-8-8-8-8-8-8-8|
 C#|-8-8-8-8-8-8-8-8|
 d#|----------------|----------------|
 A#|----------------|----------------|
 F#|----------------|----------------|
 C#|-3-3-3-3-3-3-3-3|-3-3-3-3-3-3-3-3|
 G#|-3-3-3-3-3-3-3-3|-3-3-3-3-3-3-3-3|
 C#|-3-3-3-3-3-3-3-3|-3-3-3-3-3-3-3-3|

 


 


 [Cborus 3] (3:05)


 

 
 d#|----------------|--------------------|
 A#|----------------|--------------------|
 F#|----------------|--------------------|
 C#|-8-8-8-8-8-8-8-8|-12-12-12-12-3-3-3-3| (x4)
 G#|-8-8-8-8-8-8-8-8|-12-12-12-12-3-3-3-3|
 C#|-8-8-8-8-8-8-8-8|-12-12-12-12-3-3-3-3|
 d#|----------------|----------------|
 A#|----------------|----------------|
 F#|----------------|---------5-5-5-5|
 C#|-8-8-8-8-8-8-8-8|-3-3-3-3-5-5-5-5| (x2)
 G#|-8-8-8-8-8-8-8-8|-3-3-3-3-3-3-3-3|
 C#|-8-8-8-8-8-8-8-8|-3-3-3-3--------|
 d#|----------------|--------------------|
 A#|----------------|--------------------|
 F#|----------------|--------------------|
 C#|-8-8-8-8-8-8-8-8|-12-12-12-12-3-3-3-3| (x2)
 G#|-8-8-8-8-8-8-8-8|-12-12-12-12-3-3-3-3|
 C#|-8-8-8-8-8-8-8-8|-12-12-12-12-3-3-3-3|

 


 


 [Solo] (3:42)


 

 
 d#|-------10h13p10---10------10h13p10---|----------10h13p10----10h15-15p13p10|
 A#|-10h13---------13----10h13---------13|-15p10h13----------13---------------|
 F#|-------------------------------------|------------------------------------|
 C#|-------------------------------------|------------------------------------|
 G#|-------------------------------------|------------------------------------|
 C#|-------------------------------------|------------------------------------|
 d#|-------10h13p10---10------10h13p10---|----------10h13p10----10h15-15h17p13|
 A#|-10h13---------13----10h13---------13|-15p10h13----------13---------------|
 F#|-------------------------------------|------------------------------------|
 C#|-------------------------------------|------------------------------------|
 G#|-------------------------------------|------------------------------------|
 C#|-------------------------------------|------------------------------------|
 d#|-------10h13p10---10------10h13p10---|----------10h13p10----10h15-15p13p10|
 A#|-10h13---------13----10h13---------13|-15p10h13----------13---------------|
 F#|-------------------------------------|------------------------------------|
 C#|-------------------------------------|------------------------------------|
 G#|-------------------------------------|------------------------------------|
 C#|-------------------------------------|------------------------------------|
 d#|-------10h13p10---10------10h13p10---|----------10h13p10----10h15-15h17p13|
 A#|-10h13---------13----10h13---------13|-15p10h13----------13---------------|
 F#|-------------------------------------|------------------------------------|
 C#|-------------------------------------|------------------------------------|
 G#|-------------------------------------|------------------------------------|
 C#|-------------------------------------|------------------------------------|

 


 


 [Outro] (4:01)


 

 
 d#|----------------|
 A#|----------------|
 F#|----4h5-----4h5-|
 C#|-7-------7------|(x6)
 G#|---8-------8----|
 C#|----------------| 


Important: The song above is NOT stored on the Chordie server. The original song is hosted at www.azchords.com. Chordie works as a search engine and provides on-the-fly formatting. Chordie does not index songs against artists'/composers' will. To remove this song please click here.

This song is displayed as text-only. Transposing and tuning is only available for chordpro-songs.
Rate #1 of 4 versions

Jango Player

Login - add to songbook

SHARE PAGE  



You need to log in to post comments