Guitar Tabs, Chords and Lyrics
Server problems seems to be fixed. Chordie has been experiencing problems with songs disappearing. These issues now seems to be fixed, but still verifying the fix. If you find anything strange, please email admin@chordie.com.


Blue and the Grey  Parkway Drive

PARKWAY DRIVE
BLUE AND THE GREY
[A#-F-A#-D#-G-C]  
 
 ------------------------------------------------------------|
 ------------------------------------------------------------|
 ----------------------------------9----------12-10----------|
 -14-15-15-15-15-14-14----10-12-12------12----------14-12----|
 -12-------------------15--8------------10-------------------|
 -12-----------------------8------------10-------------------|
 -------------------------------------------|
 -------------------------------------------|
 --------------------------------9----------|
 -14-15-15-15-14-14----10-12-12------12-----|
 -12----------------15--8------------10-----|
 -12--------------------8------------10-----|

0:21
 
 ------------------------------------------------------------|
 ------------------------------------------------------------|
 ----------------------------------9----------12-10----------|
 -14-15-15-15-15-14-14----10-12-12------12----------14-12----|
 -12-------------------15--8------------10-------------------|
 -12-----------------------8------------10-------------------|

[1]  
 
 -------------------------------------------|
 -------------------------------------------|
 --------------------------------9----------|
 -14-15-15-15-14-14----10-12-12------12-----|
 -12----------------15--8------------10-----|
 -12--------------------8------------10-----|

[2]  
 
 -----------------------------------------------|
 -----------------------------------------------|
 -----------------------------------------------|
 -----------------------------------------0-0---|
 -----------------------------------------0-0---|
 -----------------------------------------0-0---|

* *
0:34
[1]  
 
 ------------------------------------------------------------|
 ------------------------------------------------------------|
 ----------------------------------9----------12-10----------|
 -14-15-15-15-15-14-14----10-12-12------12----------14-12----|
 -12-------------------15--8------------10-------------------|
 -12-----------------------8------------10-------------------|

[2]  
 
 -----------------------------------------------------------|
 -----------------------------------------------------------|
 -----------------------------------------------------------|
 -0---------------0-0------------0-0------------0-0---------|
 -0---------------0-0------------0-0------------0-0---------|
 -0---------------0-0------------0-0------------0-0---------|

* * * * * *
[1]  
 
 -----------------------------------------------|
 -----------------------------------------------|
 ------------------------------------9---12-----|
 -14-15-15-15-15/17-15-14---10-12-12-----12-----|
 -12---------------------15--8-----------10-----|
 -12-------------------------8-----------10-----|

[2]  
 
 --------------------------------------|
 --------------------------------------|
 --------------------------------------|
 -0-----------------------0--0---------|
 -0-----------------------0--0---------|
 -0-----------------------0--0---------|

* *
0:49
[1]  
 
 ---------------------------------------------------------|
 ---------------------------------------------------------|
 -7------------7-7-7-1010------1010-9-5-5------10-9--9-9--|
 -X------------X-X-X--X-X-------X-X-X-X-X-------X-X--X-X--|
 -5------------5-5-7/-8-8-------8-8-7\3-3-------8\7--7-7--|
 ---------------------------------------------------------|

[2]  
 
 ---------------------------------------------------------|
 ---------------------------------------------------------|
 ---------------------------------------------------------|
 -0----------------------8--------------10----------------|
 -0----------------------8--------------10----------------|
 -0----------------------8--------------10----------------|

[1]  
 
 ---------------------------------------------------------|
 ---------------------------------------------------------|
 -7------------7-7-7-1010------1010-9-5-5------10-9--9-9--|
 -X------------X-X-X--X-X-------X-X-X-X-X-------X-X--X-X--|
 -5------------5-5-7/-8-8-------8-8-7\3-3-------8\7--7-7--|
 ---------------------------------------------------------|

[2]  
 
 ---------------------------------------------------------|
 ---------------------------------------------------------|
 ---------------------------------------------------------|
 -0----------------------8--------------10----------------|
 -0----------------------8--------------10----------------|
 -0----------------------8--------------10----------------|

[1]  
 
 ---------------------------------------------------------|
 ---------------------------------------------------------|
 -7------------7-7-7-1010------1010-9-5-5------10-9--9-9--|
 -X------------X-X-X--X-X-------X-X-X-X-X-------X-X--X-X--|
 -5------------5-5-7/-8-8-------8-8-7\3-3-------8\7--7-7--|
 ---------------------------------------------------------|

[2]  
 
 ---------------------------------------------------------|
 ---------------------------------------------------------|
 ---------------------------------------------------------|
 -0----------------------8--------------10----------------|
 -0----------------------8--------------10----------------|
 -0----------------------8--------------10----------------|

[1]  
 
 ---------------------------------------------------------|
 ---------------------------------------------------------|
 -7------------7-7-7-1010------1010-9-5-5------10-9--9-9--|
 -X------------X-X-X--X-X-------X-X-X-X-X-------X-X--X-X--|
 -5------------5-5-7/-8-8-------8-8-7\3-3-------8\7--7-7--|
 ---------------------------------------------------------|

[2]  
 
 ---------------------------------------------------------|
 ---------------------------------------------------------|
 ---------------------------------------------------------|
 -0----------------------8--------------10----------------|
 -0----------------------8--------------10----------------|
 -0----------------------8--------------10----------------|
 -----------------------------------|
 -----------------------------------|
 ---------------------P-------------|
 --8----------10-------S\-----------|
 --8----------10--------------------|
 --8----------10--------------------|

1:18
PM'D THROUGHOUT
 
 ---------------------------------------------------------|
 ---------------------------------------------------------|
 ----------------------------------------9-9-9------------|
 -------------7-7-7-------10-10-10-7-7-7-------10-10-12---|
 -------5-5-5-------8-8-8---------------------------------|
 -0-0-0---------------------------------------------------|
 ---------------------------------------------------------|
 ---------------------------------------------------------|
 ----------------------------------------9-9-9------------|
 -------------7-7-7-------10-10-10-7-7-7-------10-10-12---|
 -------5-5-5-------8-8-8---------------------------------|
 -0-0-0---------------------------------------------------|
 ---------------------------------------------------------|
 ---------------------------------------------------------|
 ----------------------------------------9-9-9------------|
 -------------7-7-7-------10-10-10-7-7-7-------10-10-12---|
 -------5-5-5-------8-8-8---------------------------------|
 -8-8-8---------------------------------------------------|

L
 
 ----------------------------------------------------------|
 ----------------------------------------------------------|
 ----------------------------------------------------------|
 -------------7-7-7----------------------------------------|
 -------5-5-5-------8-8-8----------------------------------|
 -8-8-8---------------------8-8-8-8-10-8-10-10-10-10-14-10-|

R
 
 ------------------------------------------------------|
 ------------------------------------------------------|
 ------------------------------------------------------|
 -------------7-7-7------------------------------------|
 -------5-5-5-------8-8-8------------------------------|
 -8-8-8---------------------5-5-5-5-8-5-7-7-7-7-10-7---|

1:31
[1]  
 
 ---13--13------13--13------13--13--------------------------------|
 -15--15--15--15--15--15--15--15--15------------------------------|
 -----------15----------15----------15----------------------------|
 ---------------------------------------141414141514-101010101410-|
 -----------------------------------------------------------------|
 -----------------------------------------------------------------|

[2]  
 
 --------------------------------W/LEFT OVERDUB FROM PREVIOUS RIFF END
 -------------------------------------|--------------------------|
 -------------------------------------V--------------------------|
 ----------------------------------------------------------------|
 -0000000------0000---0000---0000000-----------------------------|
 -0000000------0000---0000---0000000--5-5-5-5-8-5-7-7-7-7-10-7---|

[1]  
 
 ---17--17------13--13------13--13-------------------------------|
 -20--20--20--15--15--15--15--15--15-----------------------------|
 -----------19----------15----------15---------------------------|
 --------------------------------------141414141514-101010101410-|
 ----------------------------------------------------------------|
 ----------------------------------------------------------------|

[2]  
 
 --------------------------------------------------------------|
 --------------------------------------------------------------|
 --------------------------------------------------------------|
 --------------------------------------------------------------|
 -0000000------0000---0000---0000000---------------------------|
 -0000000------0000---0000---0000000---L8---------------10-----|

R12 14
1:44
 
 ---------------------------------------------------------|
 ---------------------------------------------------------|
 ----------------------------------------9-9-9------------|
 -------------7-7-7-------10-10-10-7-7-7-------10-10-12---|
 -------5-5-5-------8-8-8---------------------------------|
 -0-0-0---------------------------------------------------|
 ---------------------------------------------------------|
 ---------------------------------------------------------|
 ----------------------------------------9-9-9------------|
 -------------7-7-7-------10-10-10-7-7-7-------10-10-12---|
 -------5-5-5-------8-8-8---------------------------------|
 -0-0-0---------------------------------------------------|
 ---------------------------------------------------------|
 ---------------------------------------------------------|
 ----------------------------------------9-9-9------------|
 -------------7-7-7-------10-10-10-7-7-7-------10-10-12---|
 -------5-5-5-------8-8-8---------------------------------|
 -8-8-8---------------------------------------------------|

L
 
 -----------------------------13--13--------|
 ---------------------------15--15--15------|
 -------------------------------------15----|
 -------------7-7-7-------------------------|
 -------5-5-5-------8-8-8-------------------|
 -8-8-8-------------------------------------|

1:58
[1]  
 
 ---13--13------13--13------13--13--------------------------------|
 -15--15--15--15--15--15--15--15--15------------------------------|
 -----------15----------15----------15----------------------------|
 ---------------------------------------141414141514-101010101410-|
 -----------------------------------------------------------------|
 -----------------------------------------------------------------|

[2]  
 
 ----------------------------------------------------------------|
 ----------------------------------------------------------------|
 ----------------------------------------------------------------|
 ----------------------------------------------------------------|
 -0000000------0000---0000---0000000-----------------------------|
 -0000000------0000---0000---0000000--5-5-5-5-8-5-7-7-7-7-10-7---|

[1]  
 
 ---17--17------13--13------17--17----------------------------|
 -20--20--20--15--15--15--20--20--20--------------------------|
 -----------19----------15----------19------------------------|
 -------------------------------------------------------------|
 -------------------------------------------------------------|
 --------------------------------------R12--------------14----|

[2]  
 
 --------------------------------------------------------------|
 --------------------------------------------------------------|
 --------------------------------------------------------------|
 --------------------------------------------------------------|
 -0000000------0000---0000---0000000---------------------------|
 -0000000------0000---0000---0000000---L8--------------10------|

2:10
L
 
 -------------------------------------------------------------------|
 -------------------------------------------------------------------|
 -------------------------------------------------------------------|
 -------------------------------------------------------------------|
 ---------12128-10107---------71010-81212---------12128-10107-------|
 -000-000-------------000-000-------------000-000-------------------|

*** *** * ** * ** *** *** * * * * * * *** *** * ** * **
R
 
 ---------------------------------------------------------------|
 ---------------------------------------------------------------|
 ---------------------------------------------------------------|
 -0-------------------------------------------------------------|
 -0-------------------------------------------------------------|
 -0-------------------------------------------------------------|

1L
 
 ------------------------|
 --10----10------6-------|
 -----12----12-9---------|
 ------------------------|
 ------------------------|
 ------------------------|

2R
 
 ------------------------|
 ------------------------|
 --10----10-------7------|
 -----14----14-10--------|
 ------------------------|
 ------------------------|

3RYTHM
 
 -------------------------------|
 -------------------------------|
 -------------------------------|
 -------------------------------|
 ------7788-----------881010----|
 -8888-------10101010-----------|

2:17
[1]  
 
 --------------------------------------------------------------|
 --------------------------------------------------------------|
 --------------------------------------------------------------|
 --------------------------------------------------------------|
 ---------12128-10107---------71010-81212---------12128-10107--|
 -000-000-------------000-000-------------000-000--------------|

*** *** * ** * ** *** *** * * * * * * *** *** * ** * **
[2]  
 
 ------------------------------------------------------------|
 ------------------------------------------------------------|
 ------------------------------------------------------------|
 ------------------------------------------------------------|
 ------------------------------------------------------------|
 -000-000-------------000-000-------------000-000------------|

*** *** *** *** *** ***
2:25
[1+2]  
 
 --------------------------------------------------------------|
 --------------------------------------------------------------|
 --------------------------------------------------------------|
 --------------------------------------------------------------|
 ---------12128-10107---------12128-10107---------12128-10107--|
 -000-000-------------000-000-------------000-000--------------|

*** *** * ** * ** *** *** * * * * * * *** *** * ** * **
 
 --------------------------------------------|
 --------------------------------------------|
 --------------------------------------------|
 --------------------------------------------|
 ---------8-8-8-8-------------10-10-10-10----|
 -8-8-8-8---------10-10-10-10----------------|
 --------------------------------------------------------------|
 --------------------------------------------------------------|
 --------------------------------------------------------------|
 --------------------------------------------------------------|
 ---------12128-10107---------12128-10107---------12128-10107--|
 -000-000-------------000-000-------------000-000--------------|

*** *** * ** * ** *** *** * * * * * * *** *** * ** * **
 
 --------------------------------------------|
 --------------------------------------------|
 --------------------------------------------|
 --------------------------------------------|
 ---------8-8-8-8-------------10-10-10-10----|
 -8-8-8-8---------10-10-10-10----------------|

2:38
[1]  
 
 ---------------------------------------------------------------|
 ---------------------------------------------------------------|
 ---------------------------------------------------------------|
 ---------------------------------------------------------------|
 ---------8-8-5-7-7-3---------3-7-7-5-8-8----------8-8-5-7-7-3--|
 -000-000-------------000-000-------------000-000---------------|

*** *** * * * * * * *** *** * * * * * * *** *** * * * * * *
[2]  
 
 --------------------------------------------------------------|
 --------------------------------------------------------------|
 --------------------------------------------------------------|
 --------------------------------------------------------------|
 ---------12128-10107---------71010-81212---------12128-10107--|
 -000-000-------------000-000-------------000-000--------------|

*** *** * ** * ** *** *** * * * * * * *** *** * ** * **
[1]  
 
 --------------------------------------------|
 --------------------------------------------|
 --------------------------------------------|
 --------------------------------------------|
 ---------5-5-5-5---------7-7-7-7------------|
 -5-5-5-5---------7-7-7-7--------------------|

[2]  
 
 --------------------------------------------|
 --------------------------------------------|
 --------------------------------------------|
 --------------------------------------------|
 ---------8-8-8-8-------------10-10-10-10----|
 -8-8-8-8---------10-10-10-10----------------|

2:44
[1]  
 
 --------------------------------------------------------------------|
 --------------------------------------------------------------------|
 ---------------------------------------------------9-10-12-10-12-14-|
 ---------------------------------------------------X--X--X--X--X--X-|
 ---------------------------------------------------7--8-10--8-10-12-|
 -000-000-------------000-000-------------000-000--------------------|

*** *** *** *** *** ***
[2]  
 
 ---------------------------------------------------------------|
 ---------------------------------------------------------------|
 --------------------------------------------------5-7-9-7-9-10-|
 --------------------------------------------------X-X-X-X-X-X--|
 --------------------------------------------------3-5-7-5-7-8--|
 -000-000-------------000-000-------------000-000---------------|

*** *** *** *** *** ***
2:51
[B]  
 
 ---------------------------------------------------------|
 ---------------------------------------------------------|
 ----------------------------------------9-9-9------------|
 -------------7-7-7-------10-10-10-7-7-7-------10-10-12---|
 -------5-5-5-------8-8-8---------------------------------|
 -8-8-8---------------------------------------------------|
 ---------------------------------------------------------|
 ---------------------------------------------------------|
 ----------------------------------------9-9-9------------|
 -------------7-7-7-------10-10-10-7-7-7-------10-10-12---|
 -------5-5-5-------8-8-8---------------------------------|
 -8-8-8---------------------------------------------------|

L
 
 ------------------------------------------------------------|
 ------------------------------------------------------------|
 ----------------------------9-9-9----------12-12-12-9-9-10--|
 -------------10-10-10-7-7-7-------10-10-10------------------|
 -------8-8-8------------------------------------------------|
 -0-0-0------------------------------------------------------|

R
 
 ---------------------------------------------------------|
 ---------------------------------------------------------|
 ----------------------------------------9-9-9------------|
 -------------7-7-7-------10-10-10-7-7-7-------10-10-12---|
 -------5-5-5-------8-8-8---------------------------------|
 -0-0-0---------------------------------------------------|

L
 
 ------------------------------------------------------------|
 ------------------------------------------------------------|
 ------------------------------------------------------------|
 -------------10-10-10-7-7-7---------------------------------|
 -------8-8-8------------------------------------------------|
 -0-0-0-----------------------8-8-8-8-12-8-10-10-10-10-14-10-|

R
 
 ------------------------------------------------------------|
 ------------------------------------------------------------|
 ------------------------------------------------------------|
 -------------7-7-7------------------------------------------|
 -------5-5-5-------8-8-8------------------------------------|
 -0-0-0-----------------------8-8-8-8-12-8-10-10-10-10-14-10-|

3:04
[B]  
 
 ----------------------------------------------------------|
 ----------------------------------------------------------|
 ----------------------------------------------------------|
 -------------7-7-7----------------------10-10-10----------|
 -------5-5-5-------8-8-8----------7-7-7----------7-7-8----|
 -8-8-8-------------------10-10-10-------------------------|
 -------------------------------------------------------------------|
 -------------------------------------------------------------------|
 -------------------------------------------------------------------|
 -------------------12-12-12-------------------12-12-12-15-15-15-14-|
 ----------12-12-12----------12-12-12-------------------------------|
 -12-12-12----------------------------10-10-10----------------------|
 ----------------------------------------------------------|
 ----------------------------------------------------------|
 ----------------------------------------------------------|
 -------------7-7-7----------------------10-10-10----------|
 -------5-5-5-------8-8-8----------7-7-7----------7-7-8----|
 -8-8-8-------------------10-10-10-------------------------|
 -------------------------------------------|
 -------------------------------------------|
 -------------------------------------------|
 -------------------12-12-12----------------|
 ----------12-12-12----------12-12-12-0-----|
 -12-12-12----------------------------0-|---|

3:17
 
 ----------------------------------------------------------------|
 ----------------------------------------------------------------|
 ----------------------------------------------------------------|
 ----------------------------------------------------------------|
 -0000000------0000---0000---0000000-----------------------------|
 -0000000------0000---0000---0000000--5-5-5-5-8-5-7-7-7-7-10-7---|

******* **** **** *******
 
 --------------------------------------------------------------|
 --------------------------------------------------------------|
 --------------------------------------------------------------|
 --------------------------------------------------------------|
 -0000000------0000---0000---0000000---------------------------|
 -0000000------0000---0000---0000000---L8--------------10------|

******* **** **** ******* R12 14
3:30
[1]  
 
 ---13--13------13--13------13--13--------------------------------|
 -15--15--15--15--15--15--15--15--15------------------------------|
 -----------15----------15----------15----------------------------|
 --------------------------------------121212121512141414141714---|
 -----------------------------------------------------------------|
 -----------------------------------------------------------------|

[2]  
 
 ----------------------------------------------------------------|
 ----------------------------------------------------------------|
 ----------------------------------------------------------------|
 ----------------------------------------------------------------|
 ----------------------------------------------------------------|
 -0000000------0000---0000---0000000--5-5-5-5-8-5-7-7-7-7-10-7---|

[1]  
 
 ---17--17------13--13------17--17----------------------------|
 -20--20--20--15--15--15--20--20--20--------------------------|
 -----------19----------15----------19------------------------|
 ----------------------------------------15-14-15-12----------|
 -------------------------------------------------------------|
 -------------------------------------------------------------|

[2]  
 
 --------------------------------------------------------------|
 --------------------------------------------------------------|
 --------------------------------------------------------------|
 --------------------------------------------------------------|
 ---------------------------------------8--------10--------0---|
 -0000000------0000---0000---0000000----8--------10--------0---|

3:45
 
 ------------------------------------------------------------|
 ------------------------------------------------------------|
 ----------------------------------9----------12-10----------|
 -14-15-15-15-15-14-14----10-12-12------12----------14-12----|
 -12-------------------15--8------------10-------------------|
 -12-----------------------8------------10-------------------|
 -----------------------------------------------|
 -----------------------------------------------|
 ------------------------------------9---12-----|
 -14-15-15-15-15/17-15-14---10-12-12-----12-----|
 -12---------------------15--8-----------10-----|
 -12-------------------------8-----------10-----|

3:58
[1]  
 
 ---------------------------------------------------------|
 ---------------------------------------------------------|
 -7------------7-7-7-1010------1010-9-5-5------10-9--9-9--|
 -X------------X-X-X--X-X-------X-X-X-X-X-------X-X--X-X--|
 -5------------5-5-7/-8-8-------8-8-7\3-3-------8\7--7-7--|
 ---------------------------------------------------------|

[2]  
 
 ---------------------------------------------------------|
 ---------------------------------------------------------|
 ---------------------------------------------------------|
 -0----------------------8--------------10----------------|
 -0----------------------8--------------10----------------|
 -0----------------------8--------------10----------------|

[1]  
 
 ---------------------------------------------------------|
 ---------------------------------------------------------|
 -7------------7-7-7-1010------1010-9-5-5------10-9--9-9--|
 -X------------X-X-X--X-X-------X-X-X-X-X-------X-X--X-X--|
 -5------------5-5-7/-8-8-------8-8-7\3-3-------8\7--7-7--|
 ---------------------------------------------------------|

[2]  
 
 ---------------------------------------------------------|
 ---------------------------------------------------------|
 ---------------------------------------------------------|
 -0----------------------8--------------10----------------|
 -0----------------------8--------------10----------------|
 -0----------------------8--------------10----------------|

4:11
1 SOLO
 
 -------------------------------------------)---|
 --)--(------^--------------------------10-9----|
 -7-----7~~-5-7--5-----7--7/9---9-10---9---12---|
 --------------8---7/8--8----10-----12----------|
 -----------------------------------------------|
 -----------------------------------------------|

* * * *
[2]  
 
 ----------------------------------------------|
 ----------------------------------------------|
 ----------------------------------------------|
 -0------------------8-----------10------------|
 -0------------------8-----------10------------|
 -0------------------8-----------10------------|

4:17
[1]  
 
 -)---------------)-(------)-(--------------------------|
 ---13-12-10-----9----13--9-----------------------10-13-|
 ---13-12-10-12-12-------12-----10-12-------10-12-------|
 -------------------------------------12~---------------|
 -------------------------------------------------------|
 -------------------------------------------------------|

[2]  
 
 ---------------------------------------------------|
 ---------------------------------------------------|
 ---------------------------------------------------|
 -0----------------------8-----------10-------------|
 -0----------------------8-----------10------0-0----|
 -0----------------------8-----------10------0-0----|

* *
4:24
T T T T T T T T
1 ^ /\ ^ /\ ^ /\ ^ /\
 
 --------10-----12-----13----1715171513-1715171513-1715171513-1715171513|
 10~10/11--11/13--13/15--15---------------------------------------------|
 -----------------------------------------------------------------------|
 -----------------------------------------------------------------------|
 -----------------------------------------------------------------------|
 -----------------------------------------------------------------------|

[2]  
 
 -------------------------------------------------|
 -------------------------------------------------|
 -------------------------------------------------|
 -------------------------------------------------|
 -------------------------------------------------|
 000-000-000-000-000-000-000-000-888-888-888-888--|

*** *** *** *** *** *** *** *** *** *** *** ***
4:29
T T T T T T T T
1 ^ /\ ^ /\ ^ /\ ^ /\ )()()()( )SLOW RELEASE
 
 --2015201513-2015201513-2015201513-2015201513-20---------18------------|
 -----------------------------------------------------------------------|
 -----------------------------------------------------------------------|
 -----------------------------------------------------------------------|
 -----------------------------------------------------------------------|
 -----------------------------------------------------------------------|

[2]  
 
 ---------------------------------------------------------------|
 ---------------------------------------------------------------|
 ---------------------------------------------------------------|
 ---------------------------------------------------------------|
 ---------------------------------------------------------------|
 -101010-101010-101010-101010--000-000-000-000-000-000-000-000--|

* * * * * * * * * * * * *** *** *** *** *** *** *** ***
4:34
1 /\
 
 171817-15-17-15-----15---------------------------------------------------|
 ---------------18-17--18-17-15-18-17-15-13-15-13--------13--------)(^----|
 ------------------------------------------------14-12-14--14-12-12---10--|
 -----------------------------------------------------------------------12|
 -------------------------------------------------------------------------|
 -------------------------------------------------------------------------|

[2]  
 
 ------------------------------------------|
 ------------------------------------------|
 ------------------------------------------|
 ------------------------------------------|
 ------------------------------------------|
 -888-888-888-888-101010-101010-10-10------|

*** *** *** *** * * * * * * * *
4:37
W/ MELODY ECHOED
 
 ---------------------------------------------------------------|
 ---------------------------------------------------------------|
 ---------------------------------------------------------------|
 ---------------------------------------------------------------|
 -0---------0--0-0-----------8---------10--10-10----------------|
 -0---0-0-0-0--0-0---0-0-0-0-8---8-8-8-10--10-10---10-10-10-10--|

* * * * * * * * * * * * * *
 
 ---------------------------------------------------------------|
 ---------------------------------------------------------------|
 ---------------------------------------------------------------|
 ---------------------------------------------------------------|
 -0---------0--0-0-----------8---------10--10-10----------------|
 -0---0-0-0-0--0-0---0-0-0-0-8---8-8-8-10--10-10---10-10-10-10--|

* * * * * * * * * * * * * *
4:50
[1]2ND SOLO
 
 --------------------SLOW BND---------------------|
 ---------------------____------------------------|
 -------14--12-------)----TOP OF-BND(-------------|
 -/12-----------15-14-------[14]------14~~--------|
 -------------------------------------------------|
 -------------------------------------------------|

[2]  
 
 ----------------------------------------------|
 ----------------------------------------------|
 ----------------------------------------------|
 -0------------------------8-----------10------|
 -0------------------------8-----------10------|
 -0------------------------8-----------10------|

[1]  
 
 -------------------)---(--------------|
 ----------------/15------15~~---------|
 -----14--12--10---------------P-------|
 -12----------------------------S\-----|
 --------------------------------------|
 --------------------------------------|

[2]  
 
 ----------------------------------------------|
 ----------------------------------------------|
 ----------------------------------------------|
 -0------------------------8-----------10------|
 -0------------------------8-----------10------|
 -0------------------------8-----------10------|

5:03
W/ MELODY ECHOED
 
 ---------------------------------------------------------------|
 ---------------------------------------------------------------|
 ---------------------------------------------------------------|
 ---------------------------------------------------------------|
 -0---------0--0-0-----------8---------10--10-10----------------|
 -0---0-0-0-0--0-0---0-0-0-0-8---8-8-8-10--10-10---10-10-10-10--|

* * * * * * * * * * * * * *
 
 ---------------------------------------------------------------|
 ---------------------------------------------------------------|
 ---------------------------------------------------------------|
 ---------------------------------------------------------------|
 -0---------0--0-0-----------8---------10--10-10----------------|
 -0---0-0-0-0--0-0---0-0-0-0-8---8-8-8-10--10-10---10-10-10-10--|

* * * * * * * * * * * * * *
5:16
[1]  
 
 -----------------------------W/ MELODY ECHOED
 -----11----11-----------|
 --13----13----13--------|
 -----------------12-----|
 ------------------------|
 ------------------------|

[2]  
 
 -----------------------------------------------------------------|
 -----------------------------------------------------------------|
 -----------------------------------------------------------------|
 -----------------------------------------------------------------|
 -0---0-0--0-----------0-0-0---8---------10--10-10----------------|
 -0---0-0--0-----------0-0-0---8---8-8-8-10--10-10---10-10-10-10--|

* * * * * *
W/ MELODY ECHOED
 
 ---------------------------------------------------------------|
 ---------------------------------------------------------------|
 ---------------------------------------------------------------|
 ---------------------------------------------------------------|
 -0---0 0 0 0--0-0---0 0 0 0-8---------10--10-10----------------|
 -0---0-0-0-0--0-0---0-0-0-0-8---8-8-8-10--10-10---10-10-10-10--|

* * * * * * * * * * * * * * * * *
 
 ----------------------------------------------------|
 ----------------------------------------------------|
 ----------------------------------------------------|
 ------------------------------------------------0---|
 -0---0 0 0 0--0-0---0 0 0 0--0-0--0-0-0--0-0-0--0---|
 -0---0-0-0-0--0-0---0-0-0-0--0-0--0-0-0--0-0-0--0---|

* * * * * * * * * * * * * * * * * * * S

Important: The song above is NOT stored on the Chordie server. The original song is hosted at www.azchords.com. Chordie works as a search engine and provides on-the-fly formatting. Chordie does not index songs against artists'/composers' will. To remove this song please click here.

Text color:
Chord color:
Chord grids: 
Font size:    
Page size: 

B
Rate #1 of 1 versions

Login - add to songbook

SHARE PAGE  



You need to log in to post comments