Guitar Tabs, Chords and Lyrics
Server problems seems to be fixed. Chordie has been experiencing problems with songs disappearing. These issues now seems to be fixed, but still verifying the fix. If you find anything strange, please email admin@chordie.com.


Dying to Believe   Parkway Drive

 
 ----------------------------------|
 ----------------------------------|
 ----------------------------------|
 ----------------------------------|
 -7-2--7-8-7-5-7-3--7-8-7-5-7------|
 ---2------------3-----------------|

 


 | | |


 

 
 ----------------------------------|
 ----------------------------------|
 ----------------------------------|
 ----------------------------------|
 -7-2----------7-3----------7------|
 ---2------------3-----------------|

 


 | | |


 


 


 

 
 ---------------------------------------------------------|
 ---------------------------------------------------------|
 ---------------------------------------------------------|
 ------------------------------------------------7--------|
 -7-2--7-8-7-5-7-3--7-8-7-5-7-5--7-8-7-5-7-8-7-5---8-7-8--|
 ---2------------3------------5---------------------------|

 


 | | |


 


 

 
 ---------------------------------------------------------|
 ---------------------------------------------------------|
 ---------------------------------------------------------|
 ---------------------------------------------------------|
 -7-2--7-8-7-5-7-3--7-8-7-5-7-5--7-8-7-5-7-8-7-5-7-8-7-5--|
 ---2------------3------------5---------------------------|

 


 | | |


 


 

 
 ---------------------------------------------------------|
 ---------------------------------------------------------|
 ---------------------------------------------------------|
 ------------------------------------------------7--------|
 -7-2--7-8-7-5-7-3--7-8-7-5-7-5--7-8-7-5-7-8-7-5---8-7-8--|
 ---2------------3------------5---------------------------|

 


 | | |


 


 

 
 ------------------------------------------------------|
 ----------------------------------------L-------------|
 ------------------------------------------------------|
 ------------------------------------------------------|
 -7-2--7-8-7-5-7-3--7-8-7-5-7-5--7-8-7-5-7-8-7-5-7-8-7-|
 ---2------------3------------5------------------------|

 


 | | |


 


 


 


 0;21


 


 

 
 ----------------------------------------------------------|
 ----------------------------------------------------------|
 ----------------------------------------------------------|
 ----------------------------------------------------------|
 -7--------------------------3-5-7--------------5----------|
 ----2-2-2-2-2-2-2-2-2-2-2-2--------2-2-2-2-2-2---0-3-0-3--|

 


 * * * * * * * * * * * * * * * * * * * *


 


 

 
 ----------------------------------------------------------|
 ----------------------------------------------------------|
 ----------------------------------------------------------|
 ----------------------------------------------------------|
 -7--------------------------3-5-7--------------5----------|
 ----2-2-2-2-2-2-2-2-2-2-2-2--------2-2-2-2-2-2---0-3-0-3--|

 


 * * * * * * * * * * * * * * * * * * * *


 


 

 
 ----------------------------------------------------------|
 ----------------------------------------------------------|
 ----------------------------------------------------------|
 ----------------------------------------------------------|
 -7--------------------------3-5-7--------------5----------|
 ----2-2-2-2-2-2-2-2-2-2-2-2--------2-2-2-2-2-2---0-3-0-3--|

 


 * * * * * * * * * * * * * * * * * * * *


 


 

 
 ----------------------------------------------------------|
 ----------------------------------------------------------|
 ----------------------------------------------------------|
 ----------------------------------------------------------|
 -7--------------------------3-5-7--------------5----------|
 ----2-2-2-2-2-2-2-2-2-2-2-2--------2-2-2-2-2-2---0-3-0-3--|

 


 * * * * * * * * * * * * * * * * * * * *


 


 


 0:37


 


 [1]w/wah


 

 
 -///-----///----///--///--///-------///-----///---)----|
 -12------13-----12---13---12--------13-------15--------|
 -------------------------------------------------------|
 -------------------------------------------------------|
 -------------------------------------------------------|
 -------------------------------------------------------|

 


 


 [2]  

 
 -------------------------------------------------------|
 -------------------------------------------------------|
 -------------------------------------------------------|
 -------------------------------------------------------|
 -7-----------------------------------------------------|
 ----2-2-2-2---2-2--2-2---2--2--2-2-2-2-2--0-0-0-0--0-0-|

 


 * * * * * * * * * * * * * * * * * * * * *


 


 [1]w/wah


 

 
 -///-----///----///--///--///-------------///----------|
 -12------13-----12---13---12--------------13------\----|
 -------------------------------------------------------|
 -------------------------------------------------------|
 -------------------------------------------------------|
 -------------------------------------------------------|

 


 


 [2]  

 
 -------------------------------------------------------|
 -------------------------------------------------------|
 -------------------------------------------------------|
 -------------------------------------------------------|
 -7----------------------------------------0-0-0-0-4-0--|
 ----2-2-2-2---2-2--2-2---2--2--2-2-2-2-2--0-0-0-0-4-0--|

 


 * * * * * * * * * * * * * * *


 


 


 0:45


 


 

 
 ---------------------------------------------------------------------------------|
 ---------------------------------------------------------------------------------|
 ---------------------------------------------------------------------------------|
 -2--2--------5-4--------4-2----------2---2--2--------5-4--------4-2----------2---|
 -2--2--0-2-2-5-4--0-0-0-4-2--0-0-0-0-2---2--2--0-2-2-5-4--0-0-0-4-2--0-0-0-0-2-0-|
 -2--2--0-2-2-5-4--0-0-0-4-2--0-0-0-0-2---2--2--0-2-2-5-4--0-0-0-4-2--0-0-0-0-2-0-|
 ---------------------------------------------------------------------------------|
 ---------------------------------------------------------------------------------|
 ---------------------------------------------------------------------------------|
 -2--2--------5-4--------4-2----------2---2--2--------5-4--------4-2----------2---|
 -2--2--0-2-2-5-4--0-0-0-4-2--0-0-0-0-2---2--2--0-2-2-5-4--0-0-0-4-2--0-0-0-0-2-0-|
 -2--2--0-2-2-5-4--0-0-0-4-2--0-0-0-0-2---2--2--0-2-2-5-4--0-0-0-4-2--0-0-0-0-2-0-|

 


 


 


 1;03


 


 [1]  

 
 -------------------------------------------------------------------------------------|
 -------------------------------------------------------------------------------------|
 -------------------------------)(----------------------------------------------------|
 -5----------------------------4-------5----------------------------------------------|
 -------------------------------------------------------------------------------------|
 -------------------------------------------------------------------------------------|

 


 


 [2]  

 
 -------------------------------------------------------------------------------------|
 -------------------------------------------------------------------------------------|
 -------------------------------------------------------------------------------------|
 -------------------------------------------------------------------------------------|
 -------------------------------------------------------------------------------------|
 -2~--2~--0-2-2-5-4--0-0-0-4-2--0-0-0-0-2---2~--2~--0-2-2-5-4--0-0-0-4-2--0-0-0-0-2-0-|

 


 


 


 


 L


 

 
 ----------------------------------|
 ----------------------------------|
 ----------------------------------|
 ----------------------------------|
 -7-2--7-8-7-5-7-3--7-8-7-5-7-5----|
 ---2------------3------------5----|

 


 | | |


 R


 

 
 ----------------------------------|
 ----------------------------------|
 ----------------------------------|
 ----------------------------------|
 -7-2----------7-3-----------7-5---|
 ---2------------3-------------5---|

 


 | | |


 


 


 


 1:16


 


 

 
 ----------------------------------------------------------|
 ----------------------------------------------------------|
 ----------------------------------------------------------|
 ----------------------------------------------------------|
 -7--------------------------3-5-7--------------5----------|
 ----2-2-2-2-2-2-2-2-2-2-2-2--------2-2-2-2-2-2---0-3-0-3--|

 


 * * * * * * * * * * * * * * * * * * * *


 


 

 
 ----------------------------------------------------------|
 ----------------------------------------------------------|
 ----------------------------------------------------------|
 ----------------------------------------------------------|
 -7--------------------------3-5-7--------------5----------|
 ----2-2-2-2-2-2-2-2-2-2-2-2--------2-2-2-2-2-2---0-3-0-3--|

 


 * * * * * * * * * * * * * * * * * * * *


 


 

 
 ----------------------------------------------------------|
 ----------------------------------------------------------|
 ----------------------------------------------------------|
 ----------------------------------------------------------|
 -7--------------------------3-5-7--------------5----------|
 ----2-2-2-2-2-2-2-2-2-2-2-2--------2-2-2-2-2-2---0-3-0-3--|

 


 * * * * * * * * * * * * * * * * * * * *


 


 

 
 ----------------------------------------------------------|
 ----------------------------------------------------------|
 ----------------------------------------------------------|
 ----------------------------------------------------------|
 -7--------------------------3-5-7--------------5----------|
 ----2-2-2-2-2-2-2-2-2-2-2-2--------2-2-2-2-2-2---0-3-0-3--|

 


 * * * * * * * * * * * * * * * * * * * *


 


 


 1:32


 


 [1]w/wah


 

 
 -///-----///----///--///--///-------///-----///---)----|
 -12------13-----12---13---12--------13-------15--------|
 -------------------------------------------------------|
 -------------------------------------------------------|
 -------------------------------------------------------|
 -------------------------------------------------------|

 


 


 [2]  

 
 -------------------------------------------------------|
 -------------------------------------------------------|
 -------------------------------------------------------|
 -------------------------------------------------------|
 -7-----------------------------------------------------|
 ----2-2-2-2---2-2--2-2---2--2--2-2-2-2-2--0-0-0-0--0-0-|

 


 * * * * * * * * * * * * * * * * * * * * *


 [1]w/wah


 

 
 -///-----///----///--///--///-------------///----------|
 -12------13-----12---13---12--------------13------\----|
 -------------------------------------------------------|
 -------------------------------------------------------|
 -------------------------------------------------------|
 -------------------------------------------------------|

 


 


 [2]  

 
 -------------------------------------------------------|
 -------------------------------------------------------|
 -------------------------------------------------------|
 -------------------------------------------------------|
 -7----------------------------------------0-0-0-0-4----|
 ----2-2-2-2---2-2--2-2---2--2--2-2-2-2-2--0-0-0-0-4----|

 


 * * * * * * * * * * * * * * *


 


 


 


 1:41


 


 

 
 ---------------------------------------------------------------------------------|
 ---------------------------------------------------------------------------------|
 ---------------------------------------------------------------------------------|
 -2--2--------5-4--------4-2----------2---2--2--------5-4--------4-2----------2---|
 -2--2--0-2-2-5-4--0-0-0-4-2--0-0-0-0-2---2--2--0-2-2-5-4--0-0-0-4-2--0-0-0-0-2-0-|
 -2--2--0-2-2-5-4--0-0-0-4-2--0-0-0-0-2---2--2--0-2-2-5-4--0-0-0-4-2--0-0-0-0-2-0-|
 ---------------------------------------------------------------------------------|
 ---------------------------------------------------------------------------------|
 ---------------------------------------------------------------------------------|
 -2--2--------5-4--------4-2----------2---2--2--------5-4--------4-2----------2---|
 -2--2--0-2-2-5-4--0-0-0-4-2--0-0-0-0-2---2--2--0-2-2-5-4--0-0-0-4-2--0-0-0-0-2-0-|
 -2--2--0-2-2-5-4--0-0-0-4-2--0-0-0-0-2---2--2--0-2-2-5-4--0-0-0-4-2--0-0-0-0-2-0-|

 


 


 


 


 


 T ____ T ____ T ____ T ____


 / \ T / \ T / \ T / \ T


 

 
 -12-10-7-----^------12-10-7-----^---)(---12-10-7-----^----12-10-7-----^-----__________---|
 ---------8-12-7-------------8-12-7---------------8-12-7-----------8-12-7---/ \--|
 --------------------------------------------------------------------------7/9-11-12-11-9-|
 -----------------------------------------------------------------------------------------|
 -----------------------------------------------------------------------------------------|
 -----------------------------------------------------------------------------------------|

 


 


 [2]  

 
 -----------------------------------------------------------------------------------------|
 -----------------------------------------------------------------------------------------|
 -----------------------------------------------------------------------------------------|
 -2------------------5--------------------4----------------0------------------------------|
 -2------------------5--------------------4----------------0------------------------------|
 -2------------------5--------------------4----------------0------------------------------|

 


 


 [3]  

 
 ----------------------------------------------------------------------------------------|
 ----------------------------------------------------------------------------------------|
 -12-----------------16------------------14----------------11----------------------------|
 --x------------------x-------------------x----------------x-----------------------------|
 -10-----------------14------------------12----------------9-----------------------------|
 ----------------------------------------------------------------------------------------|

 


 


 


 


 2:06


 T T T T T


 

 
 ---^---T-------^---T------^---T-------^-----^-----|
 -17-12---^---17-12---^--17-12---^---19-12-20-12---|
 -------16-9--------16-9-------16-9----------------|
 --------------------------------------------------|
 --------------------------------------------------|
 --------------------------------------------------|

 


 


 [2]  

 
 --------------------------------------------------|
 --------------------------------------------------|
 --------------------------------------------------|
 -2------------------------------------------------|
 -2------------------------------------------------|
 -2------------------------------------------------|

 


 


 [3]  

 
 --------------------------------------------------|
 --------------------------------------------------|
 -12-----------------------------------------------|
 --x-----------------------------------------------|
 -10-----------------------------------------------|
 --------------------------------------------------|

 


 


 


 


 2:08


 


 T T T T T


 

 
 ---^---T-------^---T------^---T-------^-----^-----|
 -20-15---^---20-15---^--20-15---^---22-15-19-15---|
 -------19-12-------19-12------19-9----------------|
 --------------------------------------------------|
 --------------------------------------------------|
 --------------------------------------------------|

 


 


 [2]  

 
 --------------------------------------------------|
 --------------------------------------------------|
 --------------------------------------------------|
 -5------------------------------------------------|
 -5------------------------------------------------|
 -5------------------------------------------------|

 


 


 [3]  

 
 --------------------------------------------------|
 --------------------------------------------------|
 -16-----------------------------------------------|
 --x-----------------------------------------------|
 -14-----------------------------------------------|
 --------------------------------------------------|

 


 


 


 2:10


 


 T (trill tap 12 TIMES EACH )


 

 
 ---^----T-----T-_____----T------T-----T-----T-----T--------T-------------|
 -17-15---^-----/ \-----^-----^-----^-----^------^-------^------------|
 -------16-12-16-11-12----16-11-16-12-16-14-16-12--16-12---16-11----------|
 ----------------------14-------------------------------------------------|
 -------------------------------------------------------------------------|
 -------------------------------------------------------------------------|

 


 


 [2]  

 
 -------------------------------------------------------------------------|
 -------------------------------------------------------------------------|
 -------------------------------------------------------------------------|
 -4------------------------------------------------0----------------------|
 -4------------------------------------------------0----------------------|
 -4------------------------------------------------0----------------------|

 


 


 [3]  

 
 -------------------------------------------------------------------------|
 -------------------------------------------------------------------------|
 -14-----------------------------------------------11---------------------|
 --x-----------------------------------------------x----------------------|
 -12-----------------------------------------------9----------------------|
 -------------------------------------------------------------------------|

 


 


 


 


 


 2:14


 


 

 
 -----------------------------------------------------------------|
 -----------------------------------------------------------------|
 -----------------------------------------------------------------|
 -----------------------------------------------------------------|
 -----------------------------------------------------------------|
 -3-2-0-2---2-3-2---2-3-2-5-3-2-0-3-2-0-2---2-3-2---2-3-2-5-3-2-0-|

 


 | | | |


 


 

 
 -----------------------------------------------------------------|
 -----------------------------------------------------------------|
 -----------------------------------------------------------------|
 -----------------------------------------------------------------|
 -----------------------------------------------------------------|
 -3-2-0-2---2-3-2---2-3-2-5-3-2-0-3-2-0-2---2-3-2---2-3-2-5-3-2-0-|

 


 | | | |


 


 

 
 -----------------------------------------------------------------|
 -----------------------------------------------------------------|
 -----------------------------------------------------------------|
 -----------------------------------------------------------------|
 -----------------------------------------------------------------|
 -3-2-0-2---2-3-2---2-3-2-5-3-2-0-3-2-0-2---2-3-2---2-3-2-5-3-2-0-|

 


 | | | |


 


 

 
 -------------------------------------------------------------------|
 -------------------------------------------------------------------|
 -------------------------------------------------------------------|
 -------------------------------------------------------------------|
 -------------------------------------------------------------------|
 -3-2-0-2---2-3-2---2-3-2-5-3-2-0-3-2-0-2---2-3-2---2-3-2-5-3-2-0-2-|

 


 | | | |


 


 


 2:31


 


 

 
 -------------------------------------------------------------|
 -------------------------------------------------------------|
 -------------------------------------------------------------|
 -------------------------------------------------------------|
 -------------------------------------------------------------|
 -0-2-2-2-0-2---0-2-2-2-3-2---0-2-2-2-0-2---0-2-2-2-0-2-2-2---|
 -------------------------------------------------------------|
 -------------------------------------------------------------|
 -------------------------------------------------------------|
 -------------------------------------------------------------|
 -------------------------------------------------------------|
 -0-2-2-2-0-2---0-2-2-2-3-2---0-2-2-2-0-2---0-2-2-2-0-2-2-2---|

 


 


 


 2:40


 


 

 
 -----------------------------------------------|
 -----------------------------------------------|
 -----------------------------------------------|
 -----------------------------------------------|
 -0-2-2-2-2-0-2---0-2-2-3-2-0-2---0-2-2-2-2-0-2-|
 -0-2-2-2-2-0-2---0-2-2-3-2-0-2---0-2-2-2-2-0-2-|

 


 * * * * * * | * * * * * * | * * * * * * |


 


 

 
 -------------------------------------------------------------------------------|
 -------------------------------------------------------------------------------|
 -------------------------------------------------------------------------------|
 ----------------------------------------------------------------x-x-x--x--x--x-|
 -0-2-2-2-2-0-2---0-2-2-3-2-0-2---0-2-2-2-2-0-2----0-0-0-0-2-----x-x-x--x--x--x-|
 -0-2-2-2-2-0-2---0-2-2-3-2-0-2---0-2-2-2-2-0-2----0-0-0-0-2-----x-x-x--x--x--x-|

 


 * * * * * * | * * * * * * | * * * * * * | * * * |


 


 


 2:50


 


 

 
 ---------------------------------------------------------------------------------|
 ---------------------------------------------------------------------------------|
 ---------------------------------------------------------------------------------|
 -2--2--------5-4--------4-2----------2---2--2--------5-4--------4-2----------2---|
 -2--2--0-2-2-5-4--0-0-0-4-2--0-0-0-0-2---2--2--0-2-2-5-4--0-0-0-4-2--0-0-0-0-2-0-|
 -2--2--0-2-2-5-4--0-0-0-4-2--0-0-0-0-2---2--2--0-2-2-5-4--0-0-0-4-2--0-0-0-0-2-0-|
 ---------------------------------------------------------------------------------|
 ---------------------------------------------------------------------------------|
 ---------------------------------------------------------------------------------|
 -2--2--------5-4--------4-2----------2---2--2--------5-4--------4-2----------2---|
 -2--2--0-2-2-5-4--0-0-0-4-2--0-0-0-0-2---2--2--0-2-2-5-4--0-0-0-4-2--0-0-0-0-2-0-|
 -2--2--0-2-2-5-4--0-0-0-4-2--0-0-0-0-2---2--2--0-2-2-5-4--0-0-0-4-2--0-0-0-0-2-0-|

 


 


 


 L


 

 
 ----------------------------------|
 ----------------------------------|
 ----------------------------------|
 ----------------------------------|
 -7-2--7-8-7-5-7-3--7-8-7-5-7------|
 ---2------------3-----------------|

 


 | |


 R |


 

 
 ----------------------------------|
 ----------------------------------|
 ----------------------------------|
 ----------------------------------|
 -7-2----------7-3-----------7-----|
 ---2------------3-----------------| 


Important: The song above is NOT stored on the Chordie server. The original song is hosted at www.azchords.com. Chordie works as a search engine and provides on-the-fly formatting. Chordie does not index songs against artists'/composers' will. To remove this song please click here.

This song is displayed as text-only. Transposing and tuning is only available for chordpro-songs.
Rate #1 of 1 versions

Login - add to songbook

SHARE PAGE  



You need to log in to post comments