Guitar Tabs, Chords and Lyrics
Server problems seems to be fixed. Chordie has been experiencing problems with songs disappearing. These issues now seems to be fixed, but still verifying the fix. If you find anything strange, please email admin@chordie.com.


Zastave  Parni valjak

Parni Valjak - Zastave
[Am] [C] [G] [F] [G]  
[Am] [C] [G]  
Main solo:
H. S S S S Q S S S S Q S S S T T
 
 e||------------------------|--------------------------------|
 B||---------------8b-8-----|-------8b-8--------------5-6S-5-|
 G||--------------------9-7-|--9---------9-7-9----5-7--------|
 D||------------------------|--------------------------------|
 A||------------------------|--------------------------------|
 E||------------------------|--------------------------------|

H S S S S S S S S Q S S S S Q S S S T T H E E S S E
 
 |----------------------------|--------------------------------|---------------------------||
 |------------------5---------|-------8b-8--------------5-6s-5-|----------------8----------||
 |--7~--------7-5-7---7-5-----|------------9-7-9----5-7--------|--7~--------/9-----7S-5----||
 |------------------------7-5-|--7-----------------------------|------------------------7--||
 |----------------------------|--------------------------------|---------------------------||
 |----------------------------|--------------------------------|---------------------------||

[Am]Nogom pred [C]nogu - tiho!
[G]ja po [F]vodi hodam
[Am]svojim [C]putem usprav[G]no
[Am]Pljuga na pl[C]jugu
[G]jedna na dr[F]ugu
slazem - s[Am]ate, d[C]ane, godin[G]e
[Dm]Pa krenu [C]bitke
do]3;u porazi
[Dm]kad nije f[C]ilm
da [F]pravda pobjed[G]i
sjeti se
[Am] [C] [G] [F] [G]  
[Am] [C] [G]  
[Am]Kako smo ma[C]štat znali
[G]i bogu da[F]ne krali
[Am]ispred "Zv[C]ečke"[G] satima
[Am]Kovali pl[C]anove
[G]kužili[F] istine
[Am]svak' sa sv[C]ojeg obla[G]ka
[Dm]Pa krenu b[C]itke
do]3;u porazi
[Dm]ti znaš da [C]nije lako
[F]isti ostat[G]i
Moje [C]zasta[G]ve - [F]uvijek su [G]iste boje
[C]nad njima [G]ljubav caru[F]je
moja [C]zastav[G]e - n[F]ikad na p[G]ola koplja
[C]ljubav s[G]e ne predaje[F]
[Am] [C] [G] [F] [G]  
[Am] [C] [G]  
[Am]Nogom pred n[C]ogu - tiho!
[G]ja na ž[F]ici plesem
[Am]zatvore[C]nih o[G]čiju
[Am]Pljuga na plj[C]ugu
[G]jedna na dr[F]ugu
slažem - [Am]sate, [C]dane, godi[G]ne
[Dm]Sad neki n[Am]ovi klinci d[G]olaze
[Dm]a sve se t[Am]eze prave r[F]iječi [G]nalaze
Moje [C]zasta[G]ve - [F]uvijek su [G]iste boje
[C]nad njima [G]ljubav caru[F]je
moja [C]zastav[G]e - n[F]ikad na p[G]ola koplja
[C]ljubav s[G]e ne predaje[F]
Solo:
H. S S E H S S S S S S S S H S S S S S S SS
 
 e||-----------------------|----------------------------------|------------------------------|
 B||-----------------------|-------------------10-------------|------------------------------|
 G||--------------------5--|--7b~--------L--------12-7b-7-5---|--/7~-------------------------|
 D||---------------5S-7----|---------------(7)--------------7-|-------------9b-9-7-5-7---5-7-|
 A||-----------------------|----------------------------------|------------------------7-----|
 E||-----------------------|----------------------------------|------------------------------|

S S H E E S S Q. S S Q Q
 
 |---------------------------|---------------------------|
 |---------------------------|---------------------------|
 |---------------------------|---------12-14-12-----L----|
 |-----------------------5-7-|---------------------------|
 |--5---/7--------L--/7------|--5------------------------|
 |----8----------------------|---------------------------|

Q S S T T S Q S S S S Q S S Q S S T T S S S
 
 |--------------------------------------------|------------------------------------------|
 |--/13----------------------------8-10-13-10-|--12--------------------------------------|
 |---------14-12------------------------------|--------14-12-14----12--------------------|
 |---------------14S-12-10-12b~---------------|-----------------------14-12S-10-10-12-14-|
 |--------------------------------------------|------------------------------------------|
 |--------------------------------------------|------------------------------------------|

S S S S Q E S S E S S Q S S Q. Q
 
 |--------------------------15-15------------|----------------------------|
 |---------13----15b-----L--------15b--13----|--15------------------------|
 |--12S-14----14--------------------------14-|--------14b-14-12-----------|
 |-------------------------------------------|----------------------------|
 |-------------------------------------------|----------------------------|
 |-------------------------------------------|----------------------------|

S S S S S S S S S S S S S S S S S S S S S S S S S S S S S S E
 
 |--------------------------------------------------|----------------------------------------------||
 |--13-------13-------13-------13-------13----------|--15-------15-------15----13-------13-------13||
 |-----14-------14-------14-------14-------14----17-|-----16-------16-------16----14-------14------||
 |--------14-------14-------17-------17-------17----|--------17-------17-------------15-------15---||
 |--------------------------------------------------|----------------------------------------------||
 |--------------------------------------------------|----------------------------------------------||

Repeat this part till the end of the song
Duration Legend
 
 ---------------

W - whole
H - half
Q - quarter
E - 8th
S - 16th
T - 32nd
X - 64th
. - note dotted
|-n-| - n-tuplets
Tablature Legend
 
 ----------------

L - tied note
(n) - ghost note
h - hammer on
p - pull off
b - bend
S - shift slide
~ - vibrato

Important: The song above is NOT stored on the Chordie server. The original song is hosted at www.azchords.com. Chordie works as a search engine and provides on-the-fly formatting. Chordie does not index songs against artists'/composers' will. To remove this song please click here.

Text color:
Chord color:
Chord grids: 
Font size:    
Page size: 

Am C Dm F G
Rate #1 of 7 versions

Jango Player

Login - add to songbook

SHARE PAGE  




You need to log in to post comments