Guitar Tabs, Chords and Lyrics
Update 25:10. 13:00. Site is back up running again. Songbooks are recovered. Woring on getting search back up..


Simple Song  Passenger

(Intro)
[F] [C] [G] [C] [G]  
 
 e|----------3---0-----------------------------------0------------------|
 B|--------1-------------1---------1??1h3-------3---------1??--1h3-1------|
 G|--0h2-----------------------0-----------0-------0--------------------|
 D|------3---------------2-------2-------0-------0-------2-------0------|
 A|------------------3-------3-----------------------3------------------|
 E|--1-------------------------------3-------3---------------3----------|

[F] [C] [G] [G]  
 
 e|---------------------------------------------------------------------|
 B|--------1-------------1---------1??1h3-----------3-------3-------3----|
 G|--0h2-------2-0-------------0-----------0---0-------0-------0--------|
 D|------3---------------0h2-----2-------0-------0-------0-------0------|
 A|------------------3-------3------------------------------------------|
 E|--1-------1-----------------------3-------3-------3-------3----------|

[F] [C] [G] [C] [G]  
 
 e|----------3---0-----------------------------------0------------------|
 B|--------1-------------1---------1??1h3-------3---------1??--1h3-1------|
 G|--0h2-----------------------0-----------0-------0--------------------|
 D|------3---------------2-------2-------0-------0-------2-------0------|
 A|------------------3-------3-----------------------3------------------|
 E|--1-------------------------------3-------3---------------3----------|

[F] [C] [G] [G]  
 
 e|---------------------------------------------------------------------|
 B|--------1-------------1---------1??1h3-----------3-------3-------3----|
 G|--0h2-------2-0-------------0-----------0---0-------0-------0--------|
 D|------3---------------0h2-----2-------0-------0-------0-------0------|
 A|------------------3-------3------------------------------------------|
 E|--1-------1-----------------------3-------3-------3-------3----------|

(Main part)
[F] [C] [G] [C] [G]  
 
 e|---------------------------------------------------------------------|
 B|--------1-------------1---------1??----0---------0--------------------|
 G|--0h2-------2---------------0---------------0-----------0-------0----|
 D|------3-------3-------2-------2-------0-------0-------2-------0------|
 A|------------------3-------3-----------------------3------------------|
 E|--1-------1-----------------------3-------3---------------3----------|

[F] [C] [G] [G]  
 
 e|---------------------------------------------------------------------|
 B|--------1-------------1---------1??----0-------------1-------0--------|
 G|--0h2-------2---------------0---------------0---0-------0-------0----|
 D|------3-------3-------2-------2-------0-------0-------0-------0------|
 A|------------------3-------3------------------------------------------|
 E|--1-------1-----------------------3-------3-------3-------3----------|

[F] [C] [G] [C] [G]  
 
 e|---------------------------------------------------------------------|
 B|--------1-------------1---------1??----0---------0--------------------|
 G|--0h2-------2---------------0---------------0-----------0-------0----|
 D|------3-------3-------2-------2-------0-------0-------2-------0------|
 A|------------------3-------3-----------------------3------------------|
 E|--1-------1-----------------------3-------3---------------3----------|

[F] [C] [G] [G]  
 
 e|---------------------------------------------------------------------|
 B|--------1-------------1---------1??----0-------------1-------0--------|
 G|--0h2-------2---------------0---------------0---0-------0-------0----|
 D|------3-------3-------2-------2-------0-------0-------0-------0------|
 A|------------------3-------3------------------------------------------|
 E|--1-------1-----------------------3-------3-------3-------3----------|

[F] [C] [F] [C]  
 
 e|---------------------------------------------------------------------|
 B|----1-------1-------1-------1----??------1---1-------1-------1--------|
 G|--------2-------2-------0-------0-0h2-----------2-------0-------0----|
 D|------3-------3-------2-------2-------3-------3-------2-------2------|
 A|------------------3-------3-----------------------3-------3----------|
 E|--1-------1-----------------------1-------1--------------------------|

[F] [Am] [G] [G]  
 
 e|---------------------------------------------------------------------|
 B|--------1---1-------1-------1----??--0-------0-------1-------0--------|
 G|--0h2-----------2-------2-------2-------0-------0-------0-------0----|
 D|------3-------3-------2-------2-------0-------0-------0-------0------|
 A|------------------0-------0------------------------------------------|
 E|--1-------1-----------------------3-------3-------3-------3----------|

[F] [G] [C] [C]  
 
 e|---------------------------------------------------------------------|
 B|--------1---1-------0-------0----??--1-------1-------1-------1--------|
 G|--0h2-----------2-------0-------0-------0-------0-------0-------0----|
 D|------3-------3-------0-------0-------2-------2-------2-------2------| x2
 A|----------------------------------3-------3-------3-------3----------|
 E|--1-------1-------3-------3------------------------------------------|

[F] [G] [E7] [Am]  
 
 e|---------------------------------------------------------------------|
 B|--------1---1-------0-------0----??--0-------0-------1-------1--------|
 G|--0h2-----------2-------0-------0-------1-------1-------2-------2----|
 D|------3-------3-------0-------0-------0-------0-------2-------2------|
 A|--------------------------------------------------0-------0----------|
 E|--1-------1-------3-------3-------0-------0--------------------------|

[D7] [D7] [G] [G]  
 
 e|----2-------2-------2-------2-------3-------3-------3-------3--------|
 B|--------1-------1-------1-------1-------0-------0-------1-------0----|
 G|------2-------2-------2-------2-------0-------0-------0-------0------|
 D|--0-------0-------0-------0------------------------------------------|
 A|---------------------------------------------------------------------|
 E|----------------------------------3-------3-------3-------3----------|

(Main Part starts again)
[F] [C] [G] [C] [G]  
 
 e|---------------------------------------------------------------------|
 B|--------1-------------1---------1??----0---------0--------------------|
 G|--0h2-------2---------------0---------------0-----------0-------0----|
 D|------3-------3-------2-------2-------0-------0-------2-------0------|
 A|------------------3-------3-----------------------3------------------|
 E|--1-------1-----------------------3-------3---------------3----------|

[F] [C] [G] [G]  
 
 e|---------------------------------------------------------------------|
 B|--------1-------------1---------1??----0-------------1-------0--------|
 G|--0h2-------2---------------0---------------0---0-------0-------0----|
 D|------3-------3-------2-------2-------0-------0-------0-------0------|
 A|------------------3-------3------------------------------------------|
 E|--1-------1-----------------------3-------3-------3-------3----------|

[F] [C] [G] [C] [G]  
 
 e|---------------------------------------------------------------------|
 B|--------1-------------1---------1??----0---------0--------------------|
 G|--0h2-------2---------------0---------------0-----------0-------0----|
 D|------3-------3-------2-------2-------0-------0-------2-------0------|
 A|------------------3-------3-----------------------3------------------|
 E|--1-------1-----------------------3-------3---------------3----------|

[F] [C] [G] [G]  
 
 e|---------------------------------------------------------------------|
 B|--------1-------------1---------1??----0-------------1-------0--------|
 G|--0h2-------2---------------0---------------0---0-------0-------0----|
 D|------3-------3-------2-------2-------0-------0-------0-------0------|
 A|------------------3-------3------------------------------------------|
 E|--1-------1-----------------------3-------3-------3-------3----------|

[F] [C] [F] [C]  
 
 e|---------------------------------------------------------------------|
 B|----1-------1-------1-------1----??------1---1-------1-------1--------|
 G|--------2-------2-------0-------0-0h2-----------2-------0-------0----|
 D|------3-------3-------2-------2-------3-------3-------2-------2------|
 A|------------------3-------3-----------------------3-------3----------|
 E|--1-------1-----------------------1-------1--------------------------|

[F] [Am] [G] [G]  
 
 e|---------------------------------------------------------------------|
 B|--------1---1-------1-------1----??--0-------0-------1-------0--------|
 G|--0h2-----------2-------2-------2-------0-------0-------0-------0----|
 D|------3-------3-------2-------2-------0-------0-------0-------0------|
 A|------------------0-------0------------------------------------------|
 E|--1-------1-----------------------3-------3-------3-------3----------|

[F] [G] [C] [C]  
 
 e|---------------------------------------------------------------------|
 B|--------1---1-------0-------0----??--1-------1-------1-------1--------|
 G|--0h2-----------2-------0-------0-------0-------0-------0-------0----|
 D|------3-------3-------0-------0-------2-------2-------2-------2------| x2
 A|----------------------------------3-------3-------3-------3----------|
 E|--1-------1-------3-------3------------------------------------------|

[F] [G] [E7] [Am]  
 
 e|---------------------------------------------------------------------|
 B|--------1---1-------0-------0----??--0-------0-------1-------1--------|
 G|--0h2-----------2-------0-------0-------1-------1-------2-------2----|
 D|------3-------3-------0-------0-------0-------0-------2-------2------|
 A|--------------------------------------------------0-------0----------|
 E|--1-------1-------3-------3-------0-------0--------------------------|

D7 G (strum)
 
 e|--2-------------------------------3----------------------------------|
 B|--1-------------------------------0----------------------------------|
 G|--2-------------------------------0----------------------------------|
 D|--0-------------------------------0----------------------------------|
 A|----------------------------------2----------------------------------|
 E|----------------------------------3----------------------------------|

[F] [C] [G] [C] [G]  
 
 e|---------------------------------------------------------------------|
 B|--------1-------------1---------1??----0---------0--------------------|
 G|--0h2-------2---------------0---------------0-----------0-------0----|
 D|------3-------3-------2-------2-------0-------0-------2-------0------|
 A|------------------3-------3-----------------------3------------------|
 E|--1-------1-----------------------3-------3---------------3----------|

[F] [C] [G] [G]  
 
 e|---------------------------------------------------------------------|
 B|--------1-------------1---------1??----0-------------1-------0--------|
 G|--0h2-------2---------------0---------------0---0-------0-------0----|
 D|------3-------3-------2-------2-------0-------0-------0-------0------|
 A|------------------3-------3------------------------------------------|
 E|--1-------1-----------------------3-------3-------3-------3----------|

[F] [C] [G] [C] [G]  
 
 e|---------------------------------------------------------------------|
 B|--------1-------------1---------1??----0---------0--------------------|
 G|--0h2-------2---------------0---------------0-----------0-------0----|
 D|------3-------3-------2-------2-------0-------0-------2-------0------|
 A|------------------3-------3-----------------------3------------------|
 E|--1-------1-----------------------3-------3---------------3----------|

[F] [C] [G] [G]  
 
 e|---------------------------------------------------------------------|
 B|--------1-------------1---------1??----0-------------1-------0--------|
 G|--0h2-------2---------------0---------------0---0-------0-------0----|
 D|------3-------3-------2-------2-------0-------0-------0-------0------|
 A|------------------3-------3------------------------------------------|
 E|--1-------1-----------------------3-------3-------3-------3----------|

[F] [C] [F] [C]  
 
 e|---------------------------------------------------------------------|
 B|----1-------1-------1-------1----??------1---1-------1-------1--------|
 G|--------2-------2-------0-------0-0h2-----------2-------0-------0----|
 D|------3-------3-------2-------2-------3-------3-------2-------2------|
 A|------------------3-------3-----------------------3-------3----------|
 E|--1-------1-----------------------1-------1--------------------------|

[F] [Am] [G] [G]  
 
 e|---------------------------------------------------------------------|
 B|--------1---1-------1-------1----??--0-------0-------1-------0--------|
 G|--0h2-----------2-------2-------2-------0-------0-------0-------0----|
 D|------3-------3-------2-------2-------0-------0-------0-------0------|
 A|------------------0-------0------------------------------------------|
 E|--1-------1-----------------------3-------3-------3-------3----------|

[F] [C] [G] [C] [G]  
 
 e|---------------------------------------------------------------------|
 B|--------1-------------1---------1??----0---------0--------------------|
 G|--0h2-------2---------------0---------------0-----------0-------0----|
 D|------3-------3-------2-------2-------0-------0-------2-------0------|
 A|------------------3-------3-----------------------3------------------|
 E|--1-------1-----------------------3-------3---------------3----------|

[F] [C] [G] [G]  
 
 e|---------------------------------------------------------------------|
 B|--------1-------------1---------1??----0-------------1-------0--------|
 G|--0h2-------2---------------0---------------0---0-------0-------0----|
 D|------3-------3-------2-------2-------0-------0-------0-------0------|
 A|------------------3-------3------------------------------------------|
 E|--1-------1-----------------------3-------3-------3-------3----------|

Following two parts are played in a more fancy way, but I am not able to get it right.
[F] [C] [G] [C] [G]  
 
 e|----------3---0-----------------------------------0------------------|
 B|--------1-------------1---------1??1h3-------3---------1??--1h3-1------|
 G|--0h2-----------------------0-----------0-------0--------------------|
 D|------3---------------2-------2-------0-------0-------2-------0------|
 A|------------------3-------3-----------------------3------------------|
 E|--1-------------------------------3-------3---------------3----------|

[F] [C] [G] [G]  
 
 e|---------------------------------------------------------------------|
 B|--------1-------------1---------1??1h3-----------3-------3-------3----|
 G|--0h2-------2-0-------------0-----------0---0-------0-------0--------|
 D|------3---------------0h2-----2-------0-------0-------0-------0------|
 A|------------------3-------3------------------------------------------|
 E|--1-------1-----------------------3-------3-------3-------3----------|

[F] [C] [F] [C]  
 
 e|---------------------------------------------------------------------|
 B|----1-------1-------1-------1----??------1---1-------1-------1--------|
 G|--------2-------2-------0-------0-0h2-----------2-------0-------0----|
 D|------3-------3-------2-------2-------3-------3-------2-------2------|
 A|------------------3-------3-----------------------3-------3----------|
 E|--1-------1-----------------------1-------1--------------------------|

[F] [Am] [G]  
 
 e|---------------------------------------------------------------------|
 B|--------1---1-------1-------1----??-----------------------------------|
 G|--0h2-----------2-------2-------2------------------------------------|
 D|------3-------3-------2-------2--------------------------------------|
 A|------------------0-------0------------------------------------------|
 E|--1-------1-----------------------3----------------------------------| 


Important: The song above is NOT stored on the Chordie server. The original song is hosted at www.azchords.com. Chordie works as a search engine and provides on-the-fly formatting. Chordie does not index songs against artists'/composers' will. To remove this song please click here.

Text color:
Chord color:
Chord grids: 
Font size:    
Page size: 

Am C D7 E7 F G
Rate #1 of 2 versions

Jango Player

Login - add to songbook

SHARE PAGE  



You need to log in to post comments