Guitar Tabs, Chords and Lyrics
Update 25:10. 13:00. Site is back up running again. Songbooks are recovered. Woring on getting search back up..


When We Were Young  Passenger

?apo 3! :D
Intro :
[C] [G] [Am] [C]  
 
 E|--------------3---------3/5\3--0----------------------------------|
 B|-----1--------0----------------1--1-----1--------0/1--------1--0--|
 G|--------0-----0---0------------2-----2-----2-----0----0-----2--0--|
 D|-----------2---------0---------2--------------2--2-------2--------|
 A|--3----------------------------------------------3----------------|
 E|--------------3---------------------------------------------------|

[C] [G] [Am7] [Am7] [-] [Am] [-] [Am7]  
 
 E|-----------------3--1\0----------------------------------|
 B|--------1--------0-------1--------1-----1----1--1--------|
 G|-----------0-----0-------0--0--------0--0/2--2--0-----0--|
 D|-----2--------2----------2-----2--------2----2--2--2-----|
 A|--3----------------------0-------------------------------|
 E|-----------------3---------------------------------------|

[C] [G] [Fmaj7] [Am7] [Am] [-] [Am7]  
 
 E|-----------------3--------3/5\3--0----------------------------------|
 B|--------1--------0---------------1--------1--------1----------1--1--|
 G|-----------0-----0--0------------2--2--------2-----0/2--2-----2--0--|
 D|-----2--------2--------0---------3-----3--------3--2-------2--2--2--|
 A|--3-----------------------------------------------------------------|
 E|-----------------3--------------------------------------------------|

[C] [G] [Am]  
 
 E|-----------------3--1\0--0-----------------------------------|
 B|--------1--------0-------1--------1--------1-----------------|
 G|-----------0-----0-------2--2--------2--------2-----2-----2--|
 D|-----2--------2----------2-----2--------2--------2-----2-----|
 A|--3----------------------------------------------------------|
 E|-----------------3-------------------------------------------|

[C] We used to neve[G]r say never
[Am] Used to think we'll live forever
[C] Flying f[G]ree bene[Am7]ath the sun.
[C] Days go [G]running and hiding
[Am] The weeks [Fmaj7]go slipping and slidi[Am7]ng,
[C] Years leave qui[G]cker every time they [Am7]come
Remember when we were y[C]oung
Interlude 1 : x2
 
 E|--------0-----------------------------------------------------|
 B|-----------3-----------3--1-----------3--1----------1---------|
 G|--------------------2--------------2--------0h2--2-----2p0----|
 D|-----2-----------2--------------2-----------2-----------------|
 A|--3-----------0--------------0--------------------------------|
 E|--------------------------------------------------------------|

[G] Look back to the best of [Am]days
[Am7] Collecting our y[C]esterdays
[C] As they build up one by on[Am7]e
[C] Oh, how we beg and[Am] we borrow[Am7]
[C] Say we'd do it[Am] tomorrow,[G]
[Am]But tomorrow never [G]seems to come[Am7].
Intrerlude 2 :
 
 E|--------------------------0--------|
 B|--------1-----1--3-----3-----3--1--|
 G|-----0-----0--------0--------------|
 D|--2--------------------------------|
 A|-----------------------------------|
 E|-----------------------------------|

[C] We used to neve[G]r say never
[Am] Used to think we'll live forever
[C] Flying f[G]ree bene[Am7]ath the sun.
[C] Days go [G]running and hiding
[Am] The weeks [Fmaj7]go slipping and slidi[Am7]ng,
[C] Years leave qui[G]cker every time they c[Am7]ome
Remember when we were you[C]ng
Interlude 1 : x2
 
 E|--------0---------------------------------------------------|
 B|-----------3-----------3--1-----------3--1----------1-------|
 G|--------------------2--------------2--------0h2--2-----2p0--|
 D|-----2-----------2--------------2-----------2---------------|
 A|--3-----------0--------------0------------------------------|
 E|------------------------------------------------------------|

[G] When we were boys on the b[Am]each
[Am7] Everything was in [C]reach
[C] I know it's hard [Am7]to remember
[C] but oh how the years [Am]they vanis[Am7]h
[C] I always wanted [Am]to learn Spanis[G]h
[Am]And travel aroun[G]d South Ameri[Am7]ca
Intrerlude 2 :
 
 E|--------------------------0--------|
 B|--------1-----1--3-----3-----3--1--|
 G|-----0-----0--------0--------------|
 D|--2--------------------------------|
 A|-----------------------------------|
 E|-----------------------------------|

[C] We used to neve[G]r say never
[Am] Used to think we'll live forever
[C] Flying f[G]ree bene[Am7]ath the sun.
[C] Days go [G]running and hiding
[Am] The weeks [Fmaj7]go slipping and slidi[Am7]ng,
[C] Years leave qui[G]cker every time they come[Am7]
Remember when we were yo[C]ung [G]oh oh [Am7]ooh
Remember when we were you[C]ng, [G]oh oh[Am7] ooh
Remember when we were yo[C]ung, [G]oh oh [Am7]ooh
End on :
 
 E|-------------------|
 B|----------1--------|
 G|--0/2--2-----2--0--|
 D|--2----------------|
 A|-------------------|
 E|-------------------| 


Important: The song above is NOT stored on the Chordie server. The original song is hosted at www.azchords.com. Chordie works as a search engine and provides on-the-fly formatting. Chordie does not index songs against artists'/composers' will. To remove this song please click here.

Text color:
Chord color:
Chord grids: 
Font size:    
Page size: 

Am Am7 C Fmaj7 G
Rate #1 of 2 versions

Login - add to songbook

SHARE PAGE  




You need to log in to post comments