Guitar Tabs, Chords and Lyrics
Server problems seems to be fixed. Chordie has been experiencing problems with songs disappearing. These issues now seems to be fixed, but still verifying the fix. If you find anything strange, please email admin@chordie.com.


All I Want  Passion Pit

Tuning: standard
Verse 1:
[D]All I [G]want are hooks to hang your [A]flowers from
And [Bm]paper to write [G]letters on
Cause you're all I [A]ever
Chorus 1:
[G]Have, [Bm]it's all [D]I'll ever
[G]Have, [Bm]it's all [D]I'll ever
[G]Have, [Bm]it's all [D]I'll ever
[G]Have, [Bm]it's all [D]I'll ever [G]have[Gm]
Verse 2:
When [D]we wake [G]up you engulf me [A]in your love
[Bm]Waking up is always
[G]still, it's all I'll [A]ever
Chorus:
[G]Have, [Bm]it's all [D]I'll ever
[G]Have, [Bm]it's all [D]I'll ever
[G]Have, [Bm]it's all [D]I'll ever
[G]Have, [Bm]it's all [D]I'll ever [G]have[Gm]
Interlude 1:
[D] [G] [A] [Bm] [G]  
Lead (x4):
 
 E|------------------------------------------------------|
 B|-----10/12--10--7--10--7-----7--10--7-----------------|
 G|--------------------------9------------9--7--9--7-----|
 D|--7------------------------------------------------9--|
 A|------------------------------------------------------|
 E|------------------------------------------------------|

Verse 3:
And [D]all you [G]need is someone new
She's what y[A]ou can't see
[Bm]The things you never [G]think you'll be
That's all I'll [A]ever
Chorus 2:
[G]Have, [Bm]it's all [D]I'll ever
[G]Have, [Bm]it's all [D]I'll ever
[G]Have, [Bm]it's all [D]I'll ever
[G]Have, [Bm]it's all [D]I'll ever [G]have[Gm]
Bridge:
[Bm]I get the notion that I'm [C#m]almost there
[D]I get the notion that we're [G]getting closer
[Bm]And with one motion it could a[C#m]ll go wrong
[D]If I'm emotional it'll [G]ruin this all
And the [Bm]roof will cave in and f[C#m]all to the ground
[D]And I'll keep on trying though I c[G]ould never let you down
Interlude 2:
[D] [G] [A] [Bm] [G]  
Lead (x4):
 
 E|------------------------------------------------------|
 B|-----10/12--10--7--10--7-----7--10--7-----------------|
 G|--------------------------9------------9--7--9--7-----|
 D|--7------------------------------------------------9--|
 A|------------------------------------------------------|
 E|------------------------------------------------------|

It's all I'll ever
Chorus 3:
[G]Have, [Bm]it's all [D]I'll ever
[G]Have, [Bm]it's all [D]I'll ever
[G]Have, [Bm]it's all [D]I'll ever
[G]Have, [Bm]it's all [D]I'll ever [G]have[Gm]
Chorus 4:
[G]Have, [Bm]it's all [D]I'll ever
[G]Have, [Bm]it's all [D]I'll ever
[G]Have, [Bm]it's all [D]I'll ever
[G]Have, [Bm]it's all [D]I'll ever [G]have[Gm]
Lead (x4):
 
 E|------------------------------------------------------|
 B|-----10/12--10--7--10--7-----7--10--7-----------------|
 G|--------------------------9------------9--7--9--7-----|
 D|--7------------------------------------------------9--|
 A|------------------------------------------------------|
 E|------------------------------------------------------|

Verse 4:
I [D]promise [G]this
After each moment, j[A]ust a kiss
[Bm]On your cheek or [G]on your lips
That's all we'll [A]ever
h[D]ave.

Important: The song above is NOT stored on the Chordie server. The original song is hosted at www.azchords.com. Chordie works as a search engine and provides on-the-fly formatting. Chordie does not index songs against artists'/composers' will. To remove this song please click here.

Text color:
Chord color:
Chord grids: 
Font size:    
Page size: 

A Bm C#m D G Gm
Rate #1 of 1 versions

Jango Player

Login - add to songbook

SHARE PAGE  




You need to log in to post comments