Guitar Tabs, Chords and Lyrics
Server problems seems to be fixed. Chordie has been experiencing problems with songs disappearing. These issues now seems to be fixed, but still verifying the fix. If you find anything strange, please email admin@chordie.com.


Above All  Paul Baloche

Words and music: Paul Baloche and Lenny Leblanc
Above All
[A/C#]Above all [D]powers,[E] above all [A]kings,
[A/C#]Above all [D]nature and [E]all created [A]things[E/G#].
Above all [F#m]wisdom and [F#m/E]all the ways of [D]man,[A/C#]
[Bm]You were here be[Bm/A]fore the world be[E/G#]gan.
[A/C#]Above all [D]kingdoms,[E] above all [A]thrones.
[A/C#]Above all [D]wonders this [E]world has ever [A]known.[E/G#]
Above all [F#m]wealth and [F#m/E]treasures of the [D]earth,[A/C#]
[Bm]There¹s no way to[Bm/A] measure what you¹r[C#7]e worth.
[A]Cruci[Bm]fied, [E]laid behind the [A]stone,
You [A]lived and [Bm]died, re[E]jected and a[A]lone.
Like a [F#m]rose, [F#m/E]trampled on the [D]ground[A/C#]
You took the [Bm-A/C#]fall, and thought of [D]me,[E] above [A]all.
~~~~~~~~~~~~~~~~~~~~~~~~~~~~~~~~~~~~~~~~~~~~~
Alternative arrangement
ABOVE ALL
Intro:
[G] [C] [Dsus4-D] [G] [Gsus4] [G]  
 
 e-----3h5-7-5-3-2-0----0--------3-2-----------------3---|
 B---5-------------1------1---1--3-3---0-----1-------0---|
 G-----------------0--------0----2-2---0---0---0---0-0---|
 D-----------------2--2----------0-0-----0-------0---0---|
 A-----------------3---------------------------------2---|
 E-------------------------------------3-------------3---|

Verse
A[G/B]bove all p[C]owers[D] above all k[G]ings
A[G/B]bove all n[C]ature and [D]all created th[G]ings
A[D/F#]bove all w[Em]isdom and [D]all the ways of m[C]an[G/B]
Y[C]ou were here be[Am7]fore the world beg[B7]an[D] [G]
A[G/B]bove all k[C]ingdoms[D] above all thr[G]ones
A[G/B]bove all w[C]onders the w[D]orld has ever kn[G]own
A[D/F#]bove all w[Em]ealth and tr[D]easures of the e[C]arth[G/B]
Th[C]ere's no way to m[Am7]easure what You're w[B7]orth
Chorus
Cr[G]ucif[C]ied l[D]aid behind a st[G]one
You l[G]ived to d[C]ie rej[D]ected and al[G]one
[D/F#]Like a r[Em]ose tr[D]ampled on the gr[C]ound[G/B]
You took the f[C]al[G/B]l and thought of m[C]e[D]
G (Repeat intro)
Above all
Repeat Verse
Chorus
Cr[G]ucif[C]ied l[D]aid behind a st[G]one
You l[G]ived to d[C]ie rej[D]ected and al[G]one
[D/F#]Like a r[Em]ose tr[D]ampled on the gr[C]ound[G/B]
You took the f[C]al[G/B]l and thought of m[C]e[D]
Above [G]all[C/G] [D/F#]
Cr[G]ucif[C]ied l[D]aid behind a st[G]one
You l[G]ived to d[C]ie rej[D]ected and al[G]one
[D/F#]Like a r[Em]ose tr[D]ampled on the gr[C]ound[G/B]
You took the f[C]al[G/B]l and thought of m[C]e[D]
Above [G]all
[D/F#]Like a r[Em]ose tr[D]ampled on the gr[C]ound[G/B]
You took the f[C]al[G/B]l and thought of m[C]e[D]
Above all
Ending:
[G] [C] [Dsus4-D] [G]  
 
 e-----3h5-7-5-3-2-0----0--------3-2-----------3---|
 B---5-------------1------1---1--3-3---------0-----|
 G-----------------0--------0----2-2-------0-------|
 D-----------------2--2----------0-0-----0---------|
 A-----------------3-------------------------------|
 E-------------------------------------3-----------|

Chords used:
[G] [Gsus4] [C] [G/B] [D] [Dsus4] [C/G] [D/F#] [Em] [Am7] [B7]  
 
 e---3--3----0--3--2----3----0---2----0----0---2---|
 B---0--1----1--3--3----3----1---3----0----1---0---|
 G---0--0----0--0--2----2----0---2----0----0---2---|
 D---0--0----2--0--0----0----2---0----2----2---1---|
 A---2--2----3--2------------3---0----2----0---2---|
 E---3--3--------------------3---2----0------------|


Important: The song above is NOT stored on the Chordie server. The original song is hosted at www.azchords.com. Chordie works as a search engine and provides on-the-fly formatting. Chordie does not index songs against artists'/composers' will. To remove this song please click here.

Text color:
Chord color:
Chord grids: 
Font size:    
Page size: 

A A/C# Am7 B7 Bm Bm/A C C#7 C/G D D/F# Dsus4 E E/G# Em F#m F#m/E G G/B Gsus4
Rate #1 of 11 versions

Jango Player

Login - add to songbook

SHARE PAGE  



You need to log in to post comments