Guitar Tabs, Chords and Lyrics
Major upgrade!! After one year development the new version of Chordie is now online! Please give feedback.


3 Legs  Paul McCartney

Main Riff LINK
[A] [A7] [A] [D7] [D#7] [E7] 
[1] [+] [2] [+] [3] [+] [4] [+] [1] [+] [2] [+] [3] [+] [4] [+] [1] [+] [2] [+] [3] [+] [4] [+]  
 
 e|----------------| |--------2---3---|4---------------|
 B|----------------| |--------1---2---|3---------------|
 G|----2---2-------| |----2p0-2---3---|4---------------|
 D|----2---2-5---2-| |--------0---1---|2---------------|
 A|0-----0----b3---| |0---------------|----------------|
 E|----------------| |----------------|----------------|

CODA
[(A)] [A] [Bb7] [A7] 
[1] [2] [3] [4]  
 
 e|--------------------------|-----------8-9----
 B|x-x-b3-3-1----------------|----3-2-----------
 G|-----------2-2-0----------|----1-0----8-9----
 D|2---------------/4--------|----3-2-----------
 A|0-----------------b3-0-b3-|0---1-0-----------
 E|--------------------------|------------------

triplets (4x)
 
 ---------------------------------------------------------------------------

CHORDS
E-A-D-G-B-e
A7 x-0-2-0-2-0
D7 x-x-0-2-1-2
E7 (0-2)2-4-3-4
D#7 x-x-1-3-2-3
Bb7 x-1-3-1-3-1
 
 ---------------------------------------------------------------------------

VERSE
Well, when I [A7]walk, when I walk
[D7] Walk my horse upon the [A7]hill (When I walk my horse u[A7]pon a hill)
Well, when I [D7]walk, walk, walk, walk
[D7] Walk my horse upon the [A7]hill (When I walk my horse u[A7]pon a hill)
When I [E7]lay me down
E7 ´ | A D7 D#7 | E7 |
(Break) Will my lover, love me still? (LINK)
CHORUS
A dog is [A]here, (A dog is [A]here)
A dog is [A]there (A dog is [A]there)
[A]My dog he got three legs
(Br[A]eak) But he can't [A]run
VERSE
Well, when I [D7]thought, when I thought
When I thought you was my [A]friend
(When I thought that I could [A]call you my friend)
When I [D7]thought, when I thought
When I thought you was my [A]friend
(When I thought that I could [A]call you my friend)
But you [E7]let me down
E7 ´ | A D7 D#7 | E7 |
(Break) Put my heart around the bend (LINK)
CHORUS
A fly flies [A]in (A fly flies [A]in)
A fly flies [A]out (A fly flies [A]out)
[A]Most flies they got three legs
(Br[A]eak) But mine got [A]one
VERSE
Well, when I f[D7]ly, when I fly, when I fly when I fly above the cloud
[A] (When I fly upon the maddening crowd)
Well, when I f[D7]ly, when I fly, when I fly when I fly above the crowd
[A] (When I fly upon the maddening crowd)
You can k[E7]nock me down with a [D7]feather, yes you could
D7 ´ A D7 D#7 E7
(Break) But you know it's not allowed (But you know it's not allowed)
(LINK)
CHORUS
A dog is [A]here, (A dog is [A]here)
A dog is [A]there (A dog is [A]there)
[A]My dog he got three legs
(Br[A]eak) But he can't [A]run
CODA
| A | % | % | % |
[A]My dog he got three legs
[D7]Your dog he got [A]none
[A]My dog he got three legs
[D7]Your dog he got [A]none
[A]My dog he got three legs
D7 | A | A Bb7 A7
Your dog he got none (CODA)

Important: The song above is NOT stored on the Chordie server. The original song is hosted at www.azchords.com. Chordie works as a search engine and provides on-the-fly formatting. Chordie does not index songs against artists'/composers' will. To remove this song please click here.

Text color:
Chord color:
Chord grids: 
Font size:    
Page size: 

A A7 Bb7 D#7 D7 E7
Rate #1 of 7 versions

Jango Player

Login - add to songbook

SHARE PAGE  




You need to log in to post comments