Guitar Tabs, Chords and Lyrics
Server problems seems to be fixed. Chordie has been experiencing problems with songs disappearing. These issues now seems to be fixed, but still verifying the fix. If you find anything strange, please email admin@chordie.com.


Get Me Out of Here  Paul McCartney

INTRO
[G] [G] [Am] [G] [Am] [Bm] [Bm] [Am] [G] [Am] [Bm] [G] [Am] [G] [G] [Am]  
 
 e|-3--3----------------------|-------------------------|
 B|-3--3--1--0--1/ 3--3--1--0-|-1/ 3--0--1--0------0--1-|
 G|-0--0--2--0--2/ 4--4--2--0-|-2/ 4--0--2--0------0--2-|
 D|-0--0--2--0--2/ 4--4--2--0-|-2/ 4--0--2--0------0--2-|
 A|-2--2----------------------|-------------------------|
 E|-3--3----------------------|-------------------------|

[G] [G] [Am] [G] [Am] [Bm] [Bm] [Am] [G] [Am] [Bm] [G] [Am] [G] [G] [Am]  
 
 e|---------------------------|-------------------------|
 B|-0--0--1--0--1/ 3--3--1--0-|-1/ 3--0--1--0------0--1-|
 G|-0--0--2--0--2/ 4--4--2--0-|-2/ 4--0--2--0------0--2-|
 D|-0--0--2--0--2/ 4--4--2--0-|-2/ 4--0--2--0------0--2-|
 A|---------------------------|-------------------------|
 E|---------------------------|-------------------------|

VERSE 1
[G] [G] [Am] [G] [Am] [Bm] [G] [Am] [G] [Bm] [Am] [G] [G] [Am]  
 
 e|--------------------------------|---------------------|
 B|-0--0--1---0-1/ 3--0---1----0---|-3----1--0------0--1-|
 G|-0--0--2---0-2/ 4--0---2----0---|-4----2--0------0--2-|
 D|-0--0--2---0-2/ 4--0---2----0---|-4----2--0------0--2-|
 A|--------------------------------|---------------------|
 E|--------------------------------|---------------------|

VOC: I get a feel- in' when they call my name
[G] [G] [Am] [G] [Am] [Bm] [Bm] [Am] [G] [Am] [Bm] [Bm] [Am] [G] [G] [C/G]  
 
 e|----------------------------------------|-----------------------|-0----|
 B|-0--0-----1----0-----1/ 3--3--1------0--|-1/ 3--3----1--0-----0-|-1----|
 G|-0--0-----2----0-----2/ 4--4--2------0--|-2/ 4--4----2--0-----0-|-0----|
 D|-0--0-----2----0-----2/ 4--4--2------0--|-2/ 4--4----2--0-----0-|-2----|
 A|----------------------------------------|-----------------------|-3----|
 E|----------------------------------------|-----------------------|-3----|

VOC: Feels like we're all in-volved in some kind of game Oh boy
[C/G] [G] [G] [Am] [G] [Am] [Bm] [Bm] [Am] [G] [Am] [Bm] [Bm] [Am] [G] [G] [C/G]  
 
 e|-0---------------|-3--3-----------------------|-------------------|-0----|
 B|-1---------------|-3--3--1--0--1/ 3--3--1--0--|-1/ 3--3--1--0---0-|-1----|
 G|-0---------------|-0--0--2--0--2/ 4--4--2--0--|-2/ 4--4--2--0---0-|-0----|
 D|-2---------------|-0--0--2--0--2/ 4--4--2--0--|-2/ 4--4--2--0---0-|-2----|
 A|-3---------------|-2--2-----------------------|-------------------|-3----|
 E|-3---------------|-3--3-----------------------|-------------------|-3----|

VOC: Get me out of here Oh boy
INTRO (REPRISE 1)
[C/G] [G] [G] [Am] [G] [Am] [Bm] [Bm] [Am] [G] [Am] [Bm] [Bm] [Am] [G] [G] [Am] 
 
 e|-0-------------------|-3--3-----------------------|-------------------------|
 B|-1-------------------|-3--3--1--0--1/ 3--3--1--0--|-1/ 3--3--1--0------0--1-|
 G|-0-------------------|-0--0--2--0--2/ 4--4--2--0--|-2/ 4--4--2--0------0--2-|
 D|-2-------------------|-0--0--2--0--2/ 4--4--2--0--|-2/ 4--4--2--0------0--2-|
 A|-3-------------------|-2--2-----------------------|-------------------------|
 E|-3-------------------|-3--3-----------------------|-------------------------|

VOC: Let me out of here Yeah
[G] [G] [Am] [G] [Am] [Bm] [Bm] [Am] [G] [Am] [Bm] [Bm] [Am] [G] [G] [Am]  
 
 e|----------------------------|-------------------------|
 B|-0--0--1--0--1/ 3--3--1--0--|-1/ 3--3--1--0------0--1-|
 G|-0--0--2--0--2/ 4--4--2--0--|-2/ 4--4--2--0------0--2-|
 D|-0--0--2--0--2/ 4--4--2--0--|-2/ 4--4--2--0------0--2-|
 A|----------------------------|-------------------------|
 E|----------------------------|-------------------------|

VERSE 2
[G] [G] [Am] [G] [Am] [Bm] [G] [Am] [G] [Bm] [Am] [G] [G] [Am]  
 
 e|----------------------------------|---------------------|
 B|-0--0--1----0---1/ 3--0---1----0--|---3--1--0------0--1-|
 G|-0--0--2----0---2/ 4--0---2----0--|---4--2--0------0--2-|
 D|-0--0--2----0---2/ 4--0---2----0--|---4--2--0------0--2-|
 A|----------------------------------|---------------------|
 E|----------------------------------|---------------------|

VOC: I hear the tax man knocking at my door
[G] [G] [Am] [G] [Am] [Bm] [G] [Am] [G] [Am] [Bm] [Bm] [Am] [G] [G] [C/G]  
 
 e|-----------------------------------|-----------------------|-0----|
 B|-0--0----1---0--1/ 3--0---1-----0--|-1/ 3--3---1---0-----0-|-1----|
 G|-0--0----2---0--2/ 4--0---2-----0--|-2/ 4--4---2---0-----0-|-0----|
 D|-0--0----2---0--2/ 4--0---2-----0--|-2/ 4--4---2---0-----0-|-2----|
 A|-----------------------------------|-----------------------|-3----|
 E|-----------------------------------|-----------------------|-3----|

VOC: I've got a feel--in' he'll be ask---in' for more Oh boy
[C/G] [G] [G] [Am] [G] [Am] [Bm] [Bm] [Am] [G] [Am] [Bm] [Bm] [Am] [G] [G] [C/G]  
 
 e|-0-----------------|-3--3-----------------------|-------------------|-0----|
 B|-1-----------------|-3--3--1--0--1/ 3--3--1--0--|-1/ 3--3--1--0---0-|-1----|
 G|-0-----------------|-0--0--2--0--2/ 4--4--2--0--|-2/ 4--4--2--0---0-|-0----|
 D|-2-----------------|-0--0--2--0--2/ 4--4--2--0--|-2/ 4--4--2--0---0-|-2----|
 A|-3-----------------|-2--2-----------------------|-------------------|-3----|
 E|-3-----------------|-3--3-----------------------|-------------------|-3----|

VOC: Get me out of here Oh boy
[C/G] [G] [G] [Am] [G] [Am] [Bm] [Bm] [Am] [G] [Am] [Bm] [Am] [G] [G] [G] [Am]  
 
 e|-0---------------|-3--3----------------------|----------------------------|
 B|-1---------------|-3--3--1--0--1/ 3--3--1--0-|-1/ 3--1--0--0------0--1----|
 G|-0---------------|-0--0--2--0--2/ 4--4--2--0-|-2/ 4--2--0--0------0--2----|
 D|-2---------------|-0--0--2--0--2/ 4--4--2--0-|-2/ 4--2--0--0------0--2----|
 A|-3---------------|-2--2----------------------|----------------------------|
 E|-3---------------|-3--3----------------------|----------------------------|

VOC: Someone get me Yeah!
out of here
INSTRUMENTAL BREAK 1
[G7] [G7] [Bm] [Am] [G] [Am] [G] [G7] [G] [G] [G] [G] [G7]  
 
 e|----1------|-1--------------------|----1------|-3--3--3-----|----1------|
 B|----0------|-0-----3--1--0--1--0--|----0------|-3--3--3--0--|----0------|
 G|----0------|-0-----4--2--0--2--0--|----0------|-4--4--4--0--|----0------|
 D|----0------|-0-----4--2--0--2--0--|----0------|-5--5--5--0--|----0------|
 A|----2------|-2--------------------|----2------|-------------|----2------|
 E|-3--3------|-3--------------------|-3--3------|-------------|-3--3------|

[G7] [Bm] [Am] [A2] [G] [Bm] [G] [Bm] [Am] [G] [Bm] [Am] [G] [Bm] [Bm] [Am] [A2] [G]  
 
 e|-1-------------------------|----------------------|----------------|
 B|-0-----3--1--0--0----3--0--|-3--1--0--3--1--0--3--|-3--1--0----0---|
 G|-0-----4--2--2--0----4--0--|-4--2--0--4--2--0--4--|-4--2--2----0---|
 D|-0-----4--2--2--0----4--0--|-4--2--0--4--2--0--4--|-4--2--2----0---|
 A|-2-------------------------|----------------------|----------------|
 E|-3-------------------------|----------------------|----------------|

VOC: Now
VERSE 3
[G] [G] [Am] [G] [Am] [Bm] [G] [Am] [G] [Bm] [Am] [G] [G] [Am]  
 
 e|----------------------------------|-----------------------|
 B|-0--0--1----0--1/ 3--0-1-----0----|---3----1--0------0--1-|
 G|-0--0--2----0--2/ 4--0-2-----0----|---4----2--0------0--2-|
 D|-0--0--2----0--2/ 4--0-2-----0----|---4----2--0------0--2-|
 A|----------------------------------|-----------------------|
 E|----------------------------------|-----------------------|

VOC: Ah, when we fight I don't know what to say
[G] [G] [Am] [G] [Am] [Bm] [Bm] [Am] [G] [Am] [Bm] [Bm] [Am] [G] [G] [C/G]  
 
 e|-----------------------------------|----------------------|-0-----------|
 B|-0--0--1-----0---1/ 3--3---1---0---|-1/ 3--3---1--0-----0-|-1-----------|
 G|-0--0--2-----0---2/ 4--4---2---0---|-2/ 4--4---2--0-----0-|-0-----------|
 D|-0--0--2-----0---2/ 4--4---2---0---|-2/ 4--4---2--0-----0-|-2-----------|
 A|-----------------------------------|----------------------|-3-----------|
 E|-----------------------------------|----------------------|-3-----------|

VOC: It feels so bad and yet I can't run a- way Oh boy
BGV: (Oh boy)
[C/G] [G] [G] [Am] [G] [Am] [Bm] [Bm] [Am] [G]  
 
 e|-0-----------------------|-3--3-----------------------|
 B|-1-----------------------|-3--3--1--0--1/ 3--3--1--0--|
 G|-0-----------------------|-0--0--2--0--2/ 4--4--2--0--|
 D|-2-----------------------|-0--0--2--0--2/ 4--4--2--0--|
 A|-3-----------------------|-2--2-----------------------|
 E|-3-----------------------|-3--3-----------------------|

VOC: Get me out of here
BGV: (Someone get me out of here)
[Am] [Bm] [Bm] [Am] [G] [C/G] [C/G]  
 
 e|-----------------------------|-0--------|-0----------------------------|
 B|-1/ 3--3--1--0---------------|-1--------|-1----------------------------|
 G|-2/ 4--4--2--0---------------|-0--------|-0----------------------------|
 D|-2/ 4--4--2--0---------------|-2--------|-2----------------------------|
 A|-----------------------------|-3--------|-3----------------------------|
 E|-----------------------------|-3--------|-3----------------------------|

VOC: I'm a celebrity Well, someone get me out of
BGV: (Oh boy) (Someone get me out of
INTRO (REPRISE 2)
[G] [G] [Am] [G] [Am] [Bm] [Bm] [Am] [G] [Am] [Bm] [Bm] [Am] [G] [G] [Am]  
 
 e|-3--3-----------------------|-------------------------|
 B|-3--3--1--0--1/ 3--3--1--0--|-1/ 3--3--1--0------0--1-|
 G|-0--0--2--0--2/ 4--4--2--0--|-2/ 4--4--2--0------0--2-|
 D|-0--0--2--0--2/ 4--4--2--0--|-2/ 4--4--2--0------0--2-|
 A|-2--2-----------------------|-------------------------|
 E|-3--3-----------------------|-------------------------|

VOC: here
BGV: here)
[G] [G] [Am] [G] [Am] [Bm] [Bm] [Am] [G] [Am] [Bm] [Bm] [Am] [G] [G] [Am]  
 
 e|---------------------------|-------------------------|
 B|-0--0--1--0--1/ 3--3--1--0-|-1/ 3--3--1--0------0--1-|
 G|-0--0--2--0--2/ 4--4--2--0-|-2/ 4--4--2--0------0--2-|
 D|-0--0--2--0--2/ 4--4--2--0-|-2/ 4--4--2--0------0--2-|
 A|---------------------------|-------------------------|
 E|---------------------------|-------------------------|

INSTRUMENTAL BREAK 2
[G7] [G7] [Bm] [Am] [G] [Am] [G] [G7] [G] [G] [F] [F] [G7]  
 
 e|----1------|-1--------------------|----1------|-3--3--1--1--|----1------|
 B|----0------|-0-----3--1--0--1--0--|----0------|-3--3--1--1--|----0------|
 G|----0------|-0-----4--2--0--2--0--|----0------|-4--4--2--2--|----0------|
 D|----0------|-0-----4--2--0--2--0--|----0------|-5--5--3--3--|----0------|
 A|----2------|-2--------------------|----2------|-------------|----2------|
 E|-3--3------|-3--------------------|-3--3------|-------------|-3--3------|

[G7] [Bm] [Am] [G] [Bm] [Am] [G] [G] [Bm] [Am] [G] [Bm] [Bm] [Am] [G] [Bm] [Bm] [Am] [G] [G] [Am]  
 
 e|-1-----------------------|----------------------|-----------------------|
 B|-0--3--1--0--3--1--0--0--|-3--1--0--3--3--1--0--|-3--3--1---0------0--1-|
 G|-0--4--2--0--4--2--0--0--|-4--2--0--4--4--2--0--|-4--4--2---0------0--2-|
 D|-0--4--2--0--4--2--0--0--|-4--2--0--4--4--2--0--|-4--4--2---0------0--2-|
 A|-2-----------------------|----------------------|-----------------------|
 E|-3-----------------------|----------------------|-----------------------|

INTRO (REPRISE 3)
[G] [G] [Am] [G] [Am] [Bm] [Bm] [Am] [G] [Am] [Bm] [G] [Am] [G] [G] [Am]  
 
 e|-3--3----------------------|-------------------------|
 B|-3--3--1--0--1/ 3--3--1--0-|-1/ 3--0--1--0------0--1-|
 G|-0--0--2--0--2/ 4--4--2--0-|-2/ 4--0--2--0------0--2-|
 D|-0--0--2--0--2/ 4--4--2--0-|-2/ 4--0--2--0------0--2-|
 A|-2--2----------------------|-------------------------|
 E|-3--3----------------------|-------------------------|

[G] [G] [Am] [G] [Am] [Bm] [Bm] [Am] [G] [Am] [Bm] [G] [Am] [G] [G] [Am]  
 
 e|---------------------------|-------------------------|
 B|-0--0--1--0--1/ 3--3--1--0-|-1/ 3--0--1--0------0--1-|
 G|-0--0--2--0--2/ 4--4--2--0-|-2/ 4--0--2--0------0--2-|
 D|-0--0--2--0--2/ 4--4--2--0-|-2/ 4--0--2--0------0--2-|
 A|---------------------------|-------------------------|
 E|---------------------------|-------------------------|

VERSE 4
[G] [G] [Am] [G] [Am] [Bm] [G] [Am] [G] [Bm] [Am] [G] [G] [Am]  
 
 e|--------------------------------|------------------------|
 B|-0--0-1---0---1/ 3--0---1----0--|---3----1---0------0--1-|
 G|-0--0-2---0---2/ 4--0---2----0--|---4----2---0------0--2-|
 D|-0--0-2---0---2/ 4--0---2----0--|---4----2---0------0--2-|
 A|--------------------------------|------------------------|
 E|--------------------------------|------------------------|

VOC: I see the doc- -tor com- in' down the street
[G] [G] [Am] [G] [Am] [Bm] [G] [Am] [G] [Am] [Bm] [Bm] [Am] [G] [G] [C/G]  
 
 e|------------------------------|-----------------------|-0-----------|
 B|-0--0-1---0--1/ 3--0--1---0---|-1/ 3--3---1---0-----0-|-1-----------|
 G|-0--0-2---0--2/ 4--0--2---0---|-2/ 4--4---2---0-----0-|-0-----------|
 D|-0--0-2---0--2/ 4--0--2---0---|-2/ 4--4---2---0-----0-|-2-----------|
 A|------------------------------|-----------------------|-3-----------|
 E|------------------------------|-----------------------|-3-----------|

VOC: I got no fev- -er but I'm feel- ing the heat Oh boy
BGV: (Oh boy)
[C/G] [G] [G] [Am] [G] [Am] [Bm] [Bm] [Am] [G]  
 
 e|-0----------------------|-3--3-----------------------|
 B|-1----------------------|-3--3--1--0--1/ 3--3--1--0--|
 G|-0----------------------|-0--0--2--0--2/ 4--4--2--0--|
 D|-2----------------------|-0--0--2--0--2/ 4--4--2--0--|
 A|-3----------------------|-2--2-----------------------|
 E|-3----------------------|-3--3-----------------------|

VOC: Get me out of here
BGV: (Someone get me out of here)
[Am] [Bm] [Bm] [Am] [G] [G] [C/G] [C/G]  
 
 e|----------------------|-0-----------|-0----------------------|
 B|-1/ 3--3--1--0-----0--|-1-----------|-1----------------------|
 G|-2/ 4--4--2--0-----0--|-0-----------|-0----------------------|
 D|-2/ 4--4--2--0-----0--|-2-----------|-2----------------------|
 A|----------------------|-3-----------|-3----------------------|
 E|----------------------|-3-----------|-3----------------------|

VOC: Oh boy Let me out of here
BGV: (Oh boy) (Someone get me out of
[G] [G] [Am] [G] [Am] [Bm] [Bm] [Am] [G] [Am] [Bm] [Bm] [Am] [G] [G] [C/G]  
 
 e|-3--3-----------------------|----------------------|-0-----------|
 B|-3--3--1--0--1/ 3--3--1--0--|-1/ 3--3--1--0-----0--|-1-----------|
 G|-0--0--2--0--2/ 4--4--2--0--|-2/ 4--4--2--0-----0--|-0-----------|
 D|-0--0--2--0--2/ 4--4--2--0--|-2/ 4--4--2--0-----0--|-2-----------|
 A|-2--2-----------------------|----------------------|-3-----------|
 E|-3--3-----------------------|----------------------|-3-----------|

VOC: Oh boy
BGV: here) (Oh boy)
[C/G] [G] [G] [Am] [G] [Am] [Bm] [Bm] [Am] [G]  
 
 e|-0---------------------|-3--3-----------------------|
 B|-1---------------------|-3--3--1--0--1/ 3--3--1--0--|
 G|-0---------------------|-0--0--2--0--2/ 4--4--2--0--|
 D|-2---------------------|-0--0--2--0--2/ 4--4--2--0--|
 A|-3---------------------|-2--2-----------------------|
 E|-3---------------------|-3--3-----------------------|

VOC: Well, get me out of here
BGV: (Someone get me out of here)
[Am] [Bm] [Bm] [Am] [G] [G] [C/G] [C/G]  
 
 e|----------------------|-0-----------|-0----------------------|
 B|-1/ 3--3--1--0-----0--|-1-----------|-1----------------------|
 G|-2/ 4--4--2--0-----0--|-0-----------|-0----------------------|
 D|-2/ 4--4--2--0-----0--|-2-----------|-2----------------------|
 A|----------------------|-3-----------|-3----------------------|
 E|----------------------|-3-----------|-3----------------------|

VOC: Oh boy Someone get me out of
BGV: (Oh boy) (Someone get me out of
[G] [G] [Am] [G] [Am] [Bm] [G] [Am] [G] [Am] [Bm] [Bm] [Am] [G]  
 
 e|-3--3-----------------------|---------------3-------|
 B|-3--3--1--0--1/ 3--0--1--0--|-1/ 3--3--1----3-------|
 G|-0--0--2--0--2/ 4--0--2--0--|-2/ 4--4--2----0-------|
 D|-0--0--2--0--2/ 4--0--2--0--|-2/ 4--4--2----0-------|
 A|-2--2-----------------------|---------------2-------|
 E|-3--3-----------------------|---------------3-------|

VOC: here
BGV: here)

Important: The song above is NOT stored on the Chordie server. The original song is hosted at www.azchords.com. Chordie works as a search engine and provides on-the-fly formatting. Chordie does not index songs against artists'/composers' will. To remove this song please click here.

Text color:
Chord color:
Chord grids: 
Font size:    
Page size: 

A2 Am Bm C/G F G G7
Rate #1 of 2 versions

Login - add to songbook

SHARE PAGE  



You need to log in to post comments