Guitar Tabs, Chords and Lyrics
Major upgrade!! After one year development the new version of Chordie is now online! Please give feedback.


Looking at Her  Paul McCartney

Capo: 1st fret
Intro:
 
 e|-----------------------------------------------------------|
 B|-----------------------------------------------------------|
 G|-----------------------------------------------------------|
 D|7s99s12-9-7--7-7-4-7-9-------------------------------------|
 A|-----------------------------------------------------------|
 E|-----------------------------------------------------------|

If you[B] ask her how i[C#m]t's done, she wo[G#m]n't know
it's like trying to [C#m]catch the sun on the [F#m7]water
she tries to explain, then it [Bm]happens again[E]
[A]Everybody's l[F#m]ooking at he[E]r
she's got [A]everybody [F#m]talking abo[E]ut her
she's go[A]od, she's ki[G]nd, she's so r[F#m]efined[Dm]
but [A]me, I'm [E]losing my m[D]ind[E]
Though she [B]haunts me like the [C#m]sound of the [G#m]rain
or a river running [C#m]down to the o[F#m7]cean
I hate to complain but it's h[Bm]appening again[E]
Everybody's looking at her
She's got everybody talking about her
she's good, she's fine, she's sweet as wine
but me, I'm losing my mind
[E]Doesn't she kno[D]w? Why can't she se[E]e?
look at the ef[D]fect, that she's having on m[E]e
I'm not alo[D]ne, I'm part of the cro[E]wd
turning our heads, [D]as she walks down the str[E]eet
SOLO
Slide into Frets when necessary.
 
 e|---------------------------------------------------------------------------|
 B|---------------------------------------------------------------------------|
 G|1-2-4-4-4-4-6----------1-2-4-6-8-9-6---------------------------|
 D|---------------2-4-6-------------------2-4-6-4-----------------|
 A|---------------------------------------------------------------------------|
 E|---------------------------------------------------------------------------|

She tries to explain, then it happens again
Everybody's looking at her
she's got everybody talking about her
she's good, she's kind, she's so refined
but me, I'm losing my mind
I'm losing my m[D]ind[E]
I'm losing my m[D]ind[E]
I'm losing my m[D]ind[A]
End Chorus: After Repeating First Riff a couple times.
 
 e|-----------------------------------------------------------|
 B|-----------------------------------------------------------|
 G|-----------------------------------------------------------|
 D|7s99s12-9-7--7-7-4-7-7-------------------------------------|
 A|-----------------------------------------------------------|
 E|-----------------------------------------------------------|


Important: The song above is NOT stored on the Chordie server. The original song is hosted at www.azchords.com. Chordie works as a search engine and provides on-the-fly formatting. Chordie does not index songs against artists'/composers' will. To remove this song please click here.

Text color:
Chord color:
Chord grids: 
Font size:    
Page size: 

A B Bm C#m D Dm E F#m F#m7 G G#m
Rate #1 of 4 versions

Login - add to songbook

SHARE PAGE  



You need to log in to post comments