Guitar Tabs, Chords and Lyrics
Update 25:10. 13:00. Site is back up running again. Songbooks are recovered. Woring on getting search back up..


Maybe I'm Amazed  Paul McCartney

"(2)
I couldn‚??t find any tabs online that had this song in a complete and accurate form. Two
guitars play in the solo, but I tabbed out the main part of it for one that sounds close
to the original. This is a great song and fun to play.
***
Paul McCartney - Maybe I‚??m Amazed
(from McCartney, 1970)
Intro riff:
 
 e-----------------------|
 B-----------------------|
 G----------------0-1-2--|
 D------0-1-2-3-4--------|
 A--3-4------------------|
 E-----------------------|

[Bb]Maybe I'm [F]amazed at the way you [C]love me all the [G]time
Bb F C (intro riff)
Maybe I'm afraid of the way I love you
[Bb]Maybe I'm [F]amazed at the way you [C]pulled me out of [G]time
And [Bb]hung me on a [F]line
[Ab]Maybe I'm [G]amazed at the way I really [C]need you
Chorus:
[D]Maybe I'm a [Dmaj7]man and maybe I'm a lo[Ddim7]nely man
Who's in the middle of something
[G]That he doesn‚??t really understan[D]d
[D]Maybe I'm a [Dmaj7]man and maybe you're the on[Ddim7]ly woman
Who could ever help me
[G]Baby won't you help me understand[D] [Dm] [G] [A7]
Solo: (verse is played under this)
 
 e---------------------------------|
 B-----6---6-b8-6-----5-6-5--------|
 G--/7---7--------7-5-------7-4----|
 D------------------------------5--|
 A---------------------------------|
 E---------------------------------|
 e--------------------------------------------|
 B-----6---6-b8-6-----5b-----5b-----5b--------|
 G--/7---7--------7-5----7-5----7-5----7-5-7--|
 D--------------------------------------------|
 A--------------------------------------------|
 E--------------------------------------------|
 e---------------------------------|
 B-----6---6-b8-6-----5-6-5--------|
 G--/7---7--------7-5-------7-4----|
 D------------------------------5--|
 A---------------------------------|
 E---------------------------------|
 e----------------------------------------5-3--|
 B------------------------------------3-5------|
 G--7-8-7-5-----5-6-5-------------3-5----------|
 D----------7-3-------8-5-1---3-5--------------|
 A--------------------------3------------------|
 E---------------------------------------------|

(chorus repeated)
*guitar plays with a scratching chucka sound.
[Bb]Maybe I'm [F]amazed at the way you're [C]with me all the [G]time
Bb F C (intro riff)
Maybe I'm afraid of the way I leave you
[Bb]Maybe I'm [F]amazed at the way you [C]help me sing my [G]song
You [Bb]right me when I'm [F]wrong
[Ab]Maybe I'm amazed at the [G]way I really [C]need you
(chorus played but not sung)
(solo repeated)
* you can go out D D D D D D G G G etc.
"

Important: The song above is NOT stored on the Chordie server. The original song is hosted at www.azchords.com. Chordie works as a search engine and provides on-the-fly formatting. Chordie does not index songs against artists'/composers' will. To remove this song please click here.

Text color:
Chord color:
Chord grids: 
Font size:    
Page size: 

A7 Ab Bb C D Ddim7 Dm Dmaj7 F G
Rate #1 of 7 versions

Login - add to songbook

SHARE PAGE  



You need to log in to post comments