Guitar Tabs, Chords and Lyrics
Update 25:10. 13:00. Site is back up running again. Songbooks are recovered. Woring on getting search back up..


Monkberry Moon Delight  Paul McCartney

 
 ---------------------------------------------------------------------------

Monkberry Moon Delight ?? Paul McCartney
 
 ---------------------------------------------------------------------------

Tuning: Standard
Paul McCartney
Monkberry Moon Delight (1971)
(Paul & Linda McCartney)
 
 ---------------------------------------------------------------------------

CHORDS
e-B-G-D-A-E
 
 Em7 0-3-0-2-2-0-|
 E7 0-3-1-2-2-0-|
 Am7 0-1-0-2-0-x-|
 Dm7 1-1-2-0-x-x-|
 Am/G 0-1-2-2-x-3-|
 Am/F# 0-1-2-2-x-2-|
 Fmaj7 0-1-2-2-x-1-|
 F7 1-1-2-1-3-1-|
 E7* 0-0-1-0-2-0-|
 ---------------------------------------------------------------------------

GUITAR LICK
Capo 3rd fret
[Am(7)]  
 
 e|--------0-------|--------0-------|
 B|----0h1-----1p0-|----0h1-----1p0-|
 G|2---------------|2---------------|
 D|----------------|----------------|
 A|----------------|----------------|
 E|----------------|----------------|

[Dm7]  
 
 e|--------1-------|--------1-------|
 B|----0h1-----1p0-|----0h1-----1p0-|
 G|2---------------|2---------------|
 D|----------------|----------------|
 A|----------------|----------------|
 E|----------------|----------------|
 ---------------------------------------------------------------------------

Capo 3rd fret
INTRO
| Am | % | % |
So I [Am]sat in the attic, a piano at my nose,
And the wind played a dreadful can[Em7]tata (cantata, can[E7]tata)
Sore was [Am]I from the crack of an enemy's hose,
And the horrible sound of to[Em7]mato (tomato, to[E7]mato)
[Am7]Ketchup (ketchup), soup and [Dm7]puree (soup and puree),
Don't get left be[Am7]hind (don't get left behind)
[Am7]Ketchup (ketchup), soup and [Dm7]puree (soup and puree),
Don't get left be[(Am)]hind
[Am] [Am/G] [Am/F#] 
(Do[Fmaj7]n't get left behind, don't get left behind, don't get left behind)
When a [Am]rattle of rats had a[Em7]woken,
The [E7]sinews, the nerves and the [Am]veins
My [Am]piano was boldly out[Em7]spoken,
In at[E7]tempts to repeat it's re[Am]frain
So I [Am]stood with a [Am/G]knot in my [Am/F#]stomach,
And I [Am]gazed at that terrible [Em7]sight[E7]
Of two [Am]youngsters concealed in a [Dm7]barrel,
Sucking [F7]monkberry [E7]moon d[Am]elight
[Dm7] Monkberry moon delight,[Am7] monkberry moon delight
[Dm7] Monkberry moon delight,[Am7] monkberry moon delight
| Am | Am/G | Am/F# | Fmaj7 E7* |
(E7*) Am
Well, I know my banana is older than the rest,
And my [Am]hair is a tangled be[Em7]retta (beretta, be[E7]retta)
When I [Am]leave my pyjamas to Billy Budapest,
And I [Am]don't get the gist of your [Em7]letter (your letter, your [E7]letter)
Catch [Am7]up! (catch up!), cats and [Dm7]kittens (cats and kittens),
Don't get left be[Am7]hind (don't get left behind)
Catch [Am7]up! (catch up!), cats and [Dm7]kittens (cats and kittens),
[Dm7]Don't get left be[(Am)]hind
(Do[(F7)]n't get left behind, don't get left behind, don't get left behind)
F7 E7* Am7
Monkberry moon delight
[Dm7] Monkberry moon delight,[Am7] monkberry moon delight
| Dm7 | % | Am7 | % |
repeat and fade (vocals ad lib)

Important: The song above is NOT stored on the Chordie server. The original song is hosted at www.azchords.com. Chordie works as a search engine and provides on-the-fly formatting. Chordie does not index songs against artists'/composers' will. To remove this song please click here.

Text color:
Chord color:
Chord grids: 
Font size:    
Page size: 

Am Am/F# Am7 Dm7 E7 Em7 F7 Fmaj7
Rate #1 of 6 versions

Login - add to songbook

SHARE PAGE  




You need to log in to post comments