Guitar Tabs, Chords and Lyrics
Major upgrade!! After one year development the new version of Chordie is now online! Please give feedback.


So Bad  Paul McCartney

INTRO
[C] [Cadd9] [C] [C] [Cadd9] [C] [G] 
[1] [+] [2] [+] [3] [+] [4] [+] [1] [+] [2] [+] [3] [+] [4] [+] [1] [+] [2] [+] [3] [+] [4] [+] [1] [+] [2] [+] [3] [+] [4] [+]  
 
 e|----------0-----|----------0-----|3---------------|----------------|
 B|----3-3-3-1-----|----3-3-3-1-----|0---------------|----------------|
 G|0---0-0-0-0-----|0---0-0-0-0-----|0---------------|----------------|
 D|2---2-----------|2---2-----------|0---------------|----------------|
 A|3-------------3-|3---------------|----------------|----------------|
 E|----------------|----------------|3---------------|----------------|

CHORUS
[C] [Cmaj7] [C] [C] [Cmaj7] [C] [G] 
[1] [+] [2] [+] [3] [+] [4] [+] [1] [+] [2] [+] [3] [+] [4] [+] [1] [+] [2] [+] [3] [+] [4] [+] [1] [+] [2] [+] [3] [+] [4] [+]  
 
 e|----------0-----|----------0-----|3---------------|----------------|
 B|----0-0-0-1-----|----0-0-0-1-----|0---------------|----------------|
 G|0---0-0-0-0-----|0---0-0-0-0-----|0---------------|----------------|
 D|2---2-----------|2---2-----------|0---------------|----------------|
 A|3-------------3-|3---------------|----------------|----------------|
 E|----------------|----------------|3---------------|----------------|
 ---------------------------------------------------------------------------

CHORDS
E-A-D-G-B-e
Cadd9 x-3-2-0-3-x
Cmaj7 x-3-2-0-0-x
D6 x-x-0-4-3-2
A7/C# x-4-2-2-2-3
D7sus4 x-x-0-2-1-3
D7 x-x-0-2-1-2
Gmaj7 3-x-4-4-3-x
 
 ---------------------------------------------------------------------------

INTRO
| C Cadd9 C | C Cadd9 C | G | % |
VERSE
[G] There is a [Em]pain inside my [Bm]heart
You mean so [C]much to me
[C] [Cmaj7]Girl, I love [C]you,
[C] [Cmaj7]Girl, I love [C]you so [G]bad
VERSE
[G] And if you [Em]leave, my pain will [Bm]go
But that's no [C]good to me
[C] [Cmaj7]Girl, I love [C]you,
[C] [Cmaj7]Yes, I love [C]you so [G]bad
MIDDLE 8
Well, it [Bm7]feels so [Em]good
Sometimes it [Bm7]feels so [Em]bad
[D6]This is [Cmaj7]worse than [Bm7]any-[Am7]thing I've [A7/C#]ever [D7sus4]had[D7]
VERSE
[G] There was a [Em]pain but now you're [Bm]here
And I don't [C]fear a thing
[C] [Cmaj7]Girl, I love [C]you,
[C] [Cmaj7]Yes, I love [C]you so [G]bad
And she said,[C] "[Cmaj7]Boy, I love [C]you
[C] [Cmaj7]Boy, I love [C]you so [G]bad"
SOLO
| G | Em | Bm | C |
(I [C]love) [Cmaj7]Girl, I love [C]you
(I [C]love) [Cmaj7]Girl, I love [C]you so [G]bad (I love, I love)
MIDDLE 8
But it [Bm7]feels so [Em7]good
Sometimes it [Bm7]feels so [Em7]bad
[D6]This is [Cmaj7]worse than [Bm7]any-[Am7]thing I've [A7/C#]ever [D7sus4]had[D7]
VERSE
[G] There was a [Em]pain but now you're [Bm]near
And I don't [C]fear a thing
(I [C]love) [Cmaj7]Girl, I love [C]you
(I [C]love) [Cmaj7]Girl, I love [C]you so [G]bad (I love, I love)
OUTRO
She said ...
(I [C]love) [Cmaj7]Boy, I love [C]you
(I [C]love) [Cmaj7]Boy, I love [C]you so [G]bad
(I [C]love) [Cmaj7]Girl, I love [C]you
(I [C]love) [Cmaj7]Girl, I love [C]you [G] [Gmaj7]

Important: The song above is NOT stored on the Chordie server. The original song is hosted at www.azchords.com. Chordie works as a search engine and provides on-the-fly formatting. Chordie does not index songs against artists'/composers' will. To remove this song please click here.

Text color:
Chord color:
Chord grids: 
Font size:    
Page size: 

A7/C# Am7 Bm Bm7 C Cadd9 Cmaj7 D6 D7 D7sus4 Em Em7 G Gmaj7
Rate #1 of 6 versions

Jango Player

Login - add to songbook

SHARE PAGE  




You need to log in to post comments