Guitar Tabs, Chords and Lyrics
Major upgrade!! After one year development the new version of Chordie is now online! Please give feedback.


The Man  Paul McCartney

INTRO / SOLO - timing for chord changes
[A7#5] [A7]  
[1] [+] [2] [+] [3] [+] [4] [+] [1] [+] [2] [+] [3] [+] [4] [+]  
 
 e|1---------------|0---------------|
 B|2---------------|2---------------|
 G|0---------------|0---------------|
 D|2---------------|2---------------|
 A|0---------------|0---------------|
 E|----------------|----------------|

[Dm] [Am7] [Gm7] [G7sus4/C] [C] [G7sus4/C] [C] 
[1] [+] [2] [+] [3] [+] [4] [+] [1] [+] [2] [+] [3] [+] [4] [+] [1] [+] [2] [+] [3] [+] [4] [+] [1] [+] [2] [+] [3] [+] [4] [+]  
 
 e|1---------0---3-|----------------|1-----0---------|1-----0---------|
 B|3---------1---3-|----------------|3-----1---------|3-----1---------|
 G|2---------0---3-|----------------|0-----0---------|0-----0---------|
 D|0---------2---3-|----------------|x-----2---------|x-----2---------|
 A|----------0---5-|----------------|3-----3---------|3-----3---------|
 E|--------------3-|----------------|----------------|----------------|

[F6] [F] [E] [E7] [A(#5)] [A] [Dsus4] [Dm] 
[1] [+] [2] [+] [3] [+] [4] [+] [1] [+] [2] [+] [3] [+] [4] [+] [1] [+] [2] [+] [3] [+] [4] [+] [1] [+] [2] [+] [3] [+] [4] [+]  
 
 e|1-----1---------|0-------1---0---|3---------------|1---------------|
 B|3-----1---------|0---3---2---2---|3---------------|3---------------|
 G|2-----2---------|1---1---2---2---|2---------------|2---------------|
 D|3-----3---------|2---2---2---2---|0---------------|0---------------|
 A|----------------|--------0---0---|----------------|----------------|
 E|----------------|----------------|----------------|----------------|
 ---------------------------------------------------------------------------

CHORDS
E-A-D-G-B-e
A7#5 x-0-2-0-2-1
A(#5) x-0-2-2-2-1
G7sus4/C x-3-x-0-3-1
Dmaj7/A x-0-x-2-2-2
Asus2 x-0-2-2-0-0
 
 ---------------------------------------------------------------------------

INTRO
| A7#5 | A7 |
| Dm Am7 | Gm7 | G7sus4/C C | G7sus4/C C |
| F6 F | E E7 A(#5) A | Dsus4 | Dm |
VERSE
There's a [F]man
Who [Gm7]plays the game of life so [Am7]well
[Bbmaj7]Ooh, there's such a [F]man
His [Gm7]thoughts you can never [Am7]tell, [Bbmaj7]oooh
BRIDGE
And it's [Bbmaj7]just the way he [Am7]thought it would be
'Cause the [Bbmaj7]day has come for [Am7]him to be free
Then he [Bbmaj7]laughs, he kicks then [Am7]rolls up his sleeves
I'm a[Bbmaj7]live and I'm here fo[Am7]rever
(break)
| Dmaj7 Dmaj7/A | Dmaj7 Dmaj7/A |
This is the man
CHORUS
And it's [Gm7]just the way he [Am7]thought it would be
'Cause the [Gm7]day has come for [Am7]him to be free
Then he [Gm7]laughs, he kicks then [Fmaj7]rolls up his sleeves
I'm a[Gm7]live and I'm here for[Am7]ever
(break)
| Dmaj7 Asus2 | Dmaj7 Asus2 | Dmaj7 Asus2 | Dmaj7 |
This is the man (break)
VERSE
There's a [F]man
[Gm7]Everybody thought they [Am7]knew
[Bbmaj7]Ooh, there's such a [F]man
He's [Gm7]not like me and [Am7]you, [Bbmaj7]oooh
BRIDGE
And it's [Bbmaj7]just the way he [Am7]thought it would be
As he [Bbmaj7]says, something has [Am7]happened to me
Then he [Bbmaj7]laughs, he kicks then [Am7]rolls up his sleeves
I'm a[Bbmaj7]live and I'm here fo[Am7]rever
(break)
| Dmaj7 Dmaj7/A | Dmaj7 Dmaj7/A |
This is the man
CHORUS
And it's [Gm7]just the way he [Am7]thought it would be
'Cause the [Gm7]day has come for [Am7]him to be free
Then he [Gm7]laughs, he kicks then [Fmaj7]rolls up his sleeves
I'm a[Gm7]live and I'm here for[Am7]ever
(break)
| Dmaj7 Asus2 | Dmaj7 Asus2 | Dmaj7 Asus2 | Dmaj7 |
This is the man (break)
SOLO
| A7#5 | A7 |
| Dm Am7 | Gm7 | G7sus4/C C | G7sus4/C C |
| F6 F | E E7 A(#5) A | Dsus4 | Dm |
| Gm7 | % | G7sus4/C C | G7sus4/C C |
| F6 F | E E7 A(#5) A | Dsus4 | Dm |
VERSE
Did you [F]know this [Gm7]man can do any[Am7]thing?
[Bbmaj7]Ooh, there's such a [F]man
I [Gm7]wish that we could [Am7]bring, [Bbmaj7]oooh
BRIDGE
And it's [Bbmaj7]just the way he [Am7]thought it would be
'Cause the [Bbmaj7]day has come for [Am7]him to be free
Then he [Bbmaj7]laughs, he kicks then [Am7]rolls up his sleeves
I'm a[Bbmaj7]live and I'm here fo[Am7]rever
(break)
| Dmaj7 Dmaj7/A | Dmaj7 Dmaj7/A |
This is the man
CHORUS
And it's [Gm7]just the way he [Am7]thought it would be
'Cause the [Gm7]day has come for [Am7]him to be free
Then he [Gm7]laughs, he kicks then [Fmaj7]rolls up his sleeves
I'm a[Gm7]live and I'm here for[Am7]ever
(break)
| Dmaj7 Asus2 | Dmaj7 Asus2 | Dmaj7 Asus2 |
This is the man (ooh yeah)
CODA
Dmaj7 Asus2 | Dmaj7 Asus2 | Dmaj7 Asus2 | Dmaj7 Asus2 |
This is the man
(break)
Dmaj7 Asus2 | Dmaj7 Asus2 | Dmaj7 Asus2 | Dmaj7 Asus2 | Dmaj7
This is the man
(break)

Important: The song above is NOT stored on the Chordie server. The original song is hosted at www.azchords.com. Chordie works as a search engine and provides on-the-fly formatting. Chordie does not index songs against artists'/composers' will. To remove this song please click here.

Text color:
Chord color:
Chord grids: 
Font size:    
Page size: 

A A7 A7#5 Am7 Bbmaj7 C Dm Dsus4 E E7 F F6 Fmaj7 G7sus4/C Gm7
Rate #1 of 6 versions

Jango Player

Login - add to songbook

SHARE PAGE  



You need to log in to post comments