Guitar Tabs, Chords and Lyrics
Major upgrade!! After one year development the new version of Chordie is now online! Please give feedback.


The Song We Were Singing  Paul McCartney

 
 ---------------------------------------------------------------------------
 ---------------------------------------------------------------------------

Tuning: Standard
Paul McCartney
The Songs We Were Singing (1997)
(Paul McCartney)
 
 ---------------------------------------------------------------------------

Chords (Chorus)
e-B-G-D-A-D
Cadd9 3-3-0-x-3-x
G/B 3-3-0-0-2-x
G 3-3-0-0-x-3
D/F# 2-3-2-0-x-2
D/A 2-3-2-0-0-x
 
 ---------------------------------------------------------------------------

Arpeggio INTRO/VERSES
6/8
[D6] [Em] [F#m(add4)] [Em]  
 
 e|------------|------------|
 B|----0-----0-|----0-----0-|
 G|--2-----0---|--2-----0---|
 D|0-----2-----|4-----2-----|
 A|------------|------------|
 D|------------|------------|
 ---------------------------------------------------------------------------

INTRO
[D6]For a while, [Em]we could sit, [F#m(add4)]smoke a pipe
[Em]And discuss all the [D6]vast intrica[Em]cies of life [F#m(add4)] [Em]
[D6]We could ja[Em]w through the nigh[F#m(add4)]t
Talk about a [Em]range of subjects,
[D6] [Em] [F#m(add4)] [Em] [D6/9]  
 
 anything you like, oh yeah e|------0-----|
 B|----0-------|
 G|--2---------|
 D|0-----------|

But we a[Cadd9]lways came b[G/B]ack to the s[D]ongs we were singing
At [Cadd9]any par[G/B]ticular [D]time
Yeah we [Cadd9]always came [G/B]back to the [D]songs we were singing
At [Cadd9]any par[G/B]ticular [G]time [D]
[D6]Take a sip,[Em] see the world [F#m(add4)]through a glass
And [Em]speculate a[D6]bout the cosmic so[Em]lution [F#m(add4)] [Em]
[D6]To the sound,[Em] blue guitars,[F#m(add4)] caught up in a
[Em] [D6] [Em]  
 
 philosophical discussion, oh yeah e|------------|
 B|--0---------|
 G|-2----2-----|
 D|4---2-0-----|

But we a[Cadd9]lways came b[G/B]ack to the s[D]ongs we were singing
At [Cadd9]any par[G/B]ticular [D]time
Yeah we [Cadd9]always came [G/B]back to the [D]songs we were singing
Cadd9 G/B D | Cadd9 G/B | G D |
At any particular time
| D6 Em | F#m(add4) Em |
[D6]For a while, [Em]we could sit, [F#m(add4)]smoke a pipe
[Em]And discuss all the [D6]vast intrica[Em]cies of life [F#m(add4)] [Em]
[D6]Yeah, we could [Em]jaw through the ni[F#m(add4)]ght
Talk about a [Em]range of subjects,
[D6] [Em]  
 
 anything you like, e|------------|
 B|--0---------|
 G|-2----2-----|
 D|4---2-0-----|

But we a[Cadd9]lways came b[G/B]ack to the s[D/A]ongs we were s[D]inging
At [Cadd9]any par[G/B]ticular [D]time
Yeah we [Cadd9]always came [G/B]back to the [D/A]songs we were [D]singing
At [Cadd9]any par[G/B]ticular [G]time [D]
| Cadd9 G/B | G D |
| Cadd9 G/B | G D |
(Yeah, we always came back)
[D6]Take a sip,[Em] see the world [F#m(add4)]through a glass
And [Em]speculate a[D6]bout the cosmic so[Em]lution [F#m(add4)] [Em]
[D6]To the sound,[Em] blue guitars,[F#m(add4)] caught up in a
[Em]philosophical dis[D6]cussion, [Em]oh yeah [F#m(add4)] [Em]
[D6] [D]  
 
 e|------------|------------|
 B|----0-----0-|----3-----3-|
 G|--2-----2---|--2-----2---|
 D|0-----0-----|0-----0-----|

But we a[Cadd9]lways came b[G/B]ack to the s[D/A]ongs we were s[D]inging
At [Cadd9]any par[G/B]ticular [D]time
Yeah we [Cadd9]always came [G/B]back to the [D/A]songs we were [D]singing
At [Cadd9]any part[G/B]icular [D]time
| Cadd9 G/B | D/A D | G D/F# |
(Yeah)
| Cadd9 G/B | G D/F# |
We [Cadd9]always came [G/B]back [G] [D/F#]
Cadd9 G/B (freely)
 
 To the songs we were singing D|------2-----|
 A|--0-3-0-----|
 E|3-----------|


Important: The song above is NOT stored on the Chordie server. The original song is hosted at www.azchords.com. Chordie works as a search engine and provides on-the-fly formatting. Chordie does not index songs against artists'/composers' will. To remove this song please click here.

Text color:
Chord color:
Chord grids: 
Font size:    
Page size: 

Cadd9 D D/F# D6 Em F#m(add4) G G/B
Rate #1 of 6 versions

Login - add to songbook

SHARE PAGE  



You need to log in to post comments