Guitar Tabs, Chords and Lyrics
Update 25:10. 13:00. Site is back up running again. Songbooks are recovered. Woring on getting search back up..


Father and Daughter  Paul Simon

LICK 1 (barree on 5th fret)
[1] [+] [2] [+] [3] [+] [4] [+] [1] [+] [2] [+] [3] [+] [4] [+]  
 
 e|----5-------------------------|------------------------------|
 B|--------8p5-----5-------------|---------------------------5--|
 G|------------7-------7p5----5--|----------------5--h7---------|
 D|------------------------7-----|5-------5--h7-----------------|
 A|------------------------------|---h7-------------------------|
 E|------------------------------|------------------------------|

LICK 2 (barree on 5th fret)
[1] [+] [2] [+] [3] [+] [4] [+] [1] [+] [2] [+] [3] [+] [4] [+]  
 
 e|----5-------------------------|------------------------------|
 B|--------8p5-----5-------------|------------------------------|
 G|------------7-------7p5----5--|----------------5--h7------5--|
 D|------------------------7-----|5-------5--h7-----------------|
 A|------------------------------|---h7-------------------------|
 E|------------------------------|------------------------------|

LINK
[1] [+] [2] [+] [3] [+] [4] [+]  
 
 e|-----0-0h1??-0---|
 B|1--3------------|
 G|-----0-0h2--0---|
 D|2--3------------|
 A|----------------|
 E|----------------|

INTERLUDE
[Am7] [Fadd#11] [Am] [F] [G7] 
[1] [+] [2] [+] [3] [+] [4] [+] [1] [+] [2] [+] [3] [+] [4] [+] [1] [+] [2] [+] [3] [+] [4] [+] [1] [+] [2] [+] [3] [+] [4] [+]  
 
 e|--3-------------|--1-------------|--0-------------|----------------|
 B|1-----1---------|0-----0---------|----------------|--3----/5---3---|
 G|2---------------|2---------------|2-----2---------|----------------|
 D|2---------------|3---------------|2---------------|3-----3/5---3---|
 A|0---------------|3---------------|0---------------|----------------|
 E|----------------|1---------------|----------------|----------------|

[Am] [Bm7-5] [E] [Am] [F] [Gsus4/D] 
[1] [+] [2] [+] [3] [+] [4] [+] [1] [+] [2] [+] [3] [+] [4] [+] [1] [+] [2] [+] [3] [+] [4] [+] [1] [+] [2] [+] [3] [+] [4] [+]  
 
 e|----------------|----------------|----------------|----------------|
 B|------------1---|3--5--3---------|--1-------------|----------------|
 G|------0-2-------|------------7\--|------2---------|----------------|
 D|-/2-------------|--------6-------|2---------------|----------------|
 A|----------------|----------------|----------------|----------------|
 E|----------------|----------------|----------------|----------------|
 ---------------------------------------------------------------------------

CHORDS
E-A-D-G-B-e
F x-x-3-2-1-1
C/E x-x-2-0-1-0
D(m)7 x-x-0-2-1-x (no 3rd!)
Gsus4 3-x-0-0-1-x
C6 x-3-2-2-1-x
Fadd#11 (t)1-3-3-2-0-1
G7 3-x-3-0-3-x
Am7 x-0-2-2-1-3
 
 Bm7-5 x-2-3-2-3-x

Gsus4/D x-x-0-0-1-x
 
 ---------------------------------------------------------------------------

INTRO
| N.C. | % | % | % |
Lick 1
| N.C. | % | % | % |
Lick 2
| C | % | % | % |
VERSE
F C/E Dm7 Gsus4 | C | % |
If you leap awake in the mirror of a bad dream
[lick 1] 
And for a [Dm7]fraction of a [C]second you [Gsus4/B]can't remember [Gsus4]where you [Am]are
[lick 2] 
F C/E Dm7 Gsus4 | C | % |
Just open your window and follow your memory upstream
[lick 1] 
To the [Dm7]meadow in the [C]mountain where we [Gsus4/B]counted every [Gsus4]falling [Am]star
[lick 2] 
VERSE
F C/E Dm7 Gsus4 | C | % |
I believe a light that shines on you will shine on you forever
[lick 1] 
And though I [Dm7]can't guaran[C]tee there's nothing [Gsus4/B]scary hiding [Gsus4]under your [Am]bed
[lick 2] 
F C/E Dm7 Gsus4 | C | % |
I'm gonna stand guard like a postcard of a Golden Retriever
[lick 1] 
Dm7 C Gsus4/B Gsus4 | Am | |
And never leave 'til I leave you with a sweet dream in your head LINK
[lick 2] (break)
CHORUS
[C] I'm gonna watch you [F]shine
Gonna watch you [C]grow
Gonna paint a [F]sign
So you'll always [C]know
As long as [F]one and one is [C]two - oo [F]oo oo oo oo
C6 Gsus4/B Am Gsus4 | Am | % |
There could never be a father who loved his daughter more than I love you
[lick 2] 
VERSE
| F C/E | Dm7 Gsus4 | C C
Trust your intuition - it's just like goin' fishin'
[lick 1] 
Dm7 C Gsus4/B Gsus4 | Am | % |
You cast your line and hope you get a bite
[lick 2] 
But you don't need to [F]waste [C/E]your [Dm7]time[Gsus4]
[lick 1] 
[C]Worryin' about the market place, [C]tryin' to help the human race
Dm7 C Gsus4/B Gsus4 | Am | |
Struggling to survive its harshest night LINK
[lick 2] 
CHORUS
[C] I'm gonna watch you [F]shine
Gonna watch you [C]grow
Gonna paint a [F]sign
So you'll always [C]know
As long as [F]one and one is [C]two - oo [F]oo oo oo oo
C6 Gsus4/B Am Gsus4 | Am | F |
There could never be a father who loved his daughter more than I love you
[lick 2] 
INTERLUDE
| Am7 | Fadd#11 | Am | F G7 |
| Am | Bm7-5 E | Am | F Gsus4/D |
CHORUS
[C] I'm gonna watch you [F]shine
Gonna watch you [C]grow
Gonna paint a [F]sign
So you'll always [C]know
As long as [F]one and one is [C]two - oo [F]oo oo oo oo
C6 Gsus4/B Am Gsus4 [ C ]
There could never be a father who loved his daughter more than I love you
[lick 2] 
OUTRO
| C | % | % | % |
(I love you ...)
(lick 1)
| C | % | % | % |
(lick 2)

Important: The song above is NOT stored on the Chordie server. The original song is hosted at www.azchords.com. Chordie works as a search engine and provides on-the-fly formatting. Chordie does not index songs against artists'/composers' will. To remove this song please click here.

Text color:
Chord color:
Chord grids: 
Font size:    
Page size: 

Am Am7 Bm7-5 C C/E Dm7 E F Fadd#11 G7 Gsus4 Gsus4/B
Rate #3 of 9 versions

Login - add to songbook

SHARE PAGE  




You need to log in to post comments