Guitar Tabs, Chords and Lyrics
Server problems seems to be fixed. Chordie has been experiencing problems with songs disappearing. These issues now seems to be fixed, but still verifying the fix. If you find anything strange, please email admin@chordie.com.


Major Leagues  Pavement

Lip Balm on wate[B]ry Clay,[Bb/B]
[Gm]Relationships, H[F#]ey, h[E]ey, [F#]hey.
[B]You kiss like a rock, but you know, i need it [Bb/B]anyway
[Gm]angle for the ringside se[F#]ats w[E]hen they fall do[Fm]n't blame me
[B]Bring on the major Leagues, [Bb/B] [Gm]Bring on the [F#]major [E]leagues,[F#]
[B]Bring on the major leagues, [Bb/B] [Gm]Bring on the [F#]major [E]Leagues[F#]
[B]How you gonna teach him to walk, [Bb/B]
[Gm]when he can't even finish the[F#], he [E]can't even finish the[F#]
[B]Songs of the law. Are they civilized or [Bb/B]satanists?
[Gm]Cater to my walls and [F#]see if [E]they fall don't leave m[F#]e.
[B]Bring on the major Leagues, [Bb/B] [Gm]Bring on the [F#]major [E]leagues,[F#]
[B]Bring on the major leagues, [Bb/B] [Gm]Bring on the [F#]major [E]Leagues[F#]
BRIDGE
 
 e---------------------------------| This is played up until "bad girls"
 B-----0-------0-------0-------0---|
 G---------------------------------|
 D---4---4-------4---4---4-------4-|
 A-2---------2-----2---------2-----|
 E---------4---------------4-------|

They wear you down sometimes, kids like wine, magic Christians chew the rind
[Gm]cause bad girls, are [F#]always bad [E]girls, [F#]Let em in.
Solo: Starts around "bad girls" lyrics.
Play the 6-4's as many times as you see fit. I'm not counting them.
 
 e-------------------------------------------------------------------------|
 B-------------------------------------------------------------------------|
 G-6-4-6-4-6-4-6-4-6-4-6p4-6-4-6-4-3/4/3---------3-4-6-4-3-----------------|
 D---------------------------------------6-4-4h6-----------6-4-------------|
 A-------------------------------------------------------------------------|
 E-------------------------------------------------------------------------|

[B]Darling, we're up against it [Bb/B]and there is [Gm]no time f[F#]or tie[E]-ins, tie, ins,
tie-ins [F#]GO!
CHORUS
BRIDGE
They will wear you down sometimes, kiss the wine, magic Christians chew
the rind [Gm]Cause bad girls, [F#]Are always [E]bad girls [F#] LET EM I[B]N!

Important: The song above is NOT stored on the Chordie server. The original song is hosted at www.azchords.com. Chordie works as a search engine and provides on-the-fly formatting. Chordie does not index songs against artists'/composers' will. To remove this song please click here.

Text color:
Chord color:
Chord grids: 
Font size:    
Page size: 

B Bb/B E F# Fm Gm
Rate #1 of 4 versions

Jango Player

Login - add to songbook

SHARE PAGE  



You need to log in to post comments