Guitar Tabs, Chords and Lyrics
Server problems seems to be fixed. Chordie has been experiencing problems with songs disappearing. These issues now seems to be fixed, but still verifying the fix. If you find anything strange, please email admin@chordie.com.


Spit on a Stranger  Pavement

Pavement
Spit on a Stranger
1.Intro:
 
 e-------------------------------------------------------------------------------------------------------------------
 B-----------------3---------------------------3-----------------------------3----------------------------------3
 G-----------2-----------2--------------2------------2---------------0-----------0----------------0-----------
 D-----0------------------------------------------------------------------------------------------------------------
 A---------------------------------0--------------------------------------------------------------------------------
 E----------------------------------------------------------------2----------------------------0-----------2-------
 e-------------------------------------------------------------------------------------------------------------------
 B---------------3------------------------3---------------------------------3---------------------------------3---
 G---------2----------2-------------2---------2---------------------0------------0----------------0------------
 D----0-------------------------------------------------------------------------------------------------------------
 A------------------------------0--------------------------------------------------------------2---------0---------
 E---------------------------------------------------------------2-------------------------------------------------
 e-------------------------------------------------------------------------------------------------------------------
 B---------------3--------------------------3-----------------------3---------------------------------3------------
 G---------2----------2--------------0-----------0------------0---------0-------------------0--------------0----
 D----0-------------------------------------------------------------------------------------------------------------
 A-----------------------------3------------------------------------------------------------------------------------
 E----------------------------------------------------------3-------------------------2----------------0-----------
 e----------------------------------------------------------------------------------
 B--------------3------------------------3-----------------------3--------------- Asus4 repeated
 G--------2---------2--------------0---------0------------0---------0----------
 D---0---------------------------------------------------------------------------
 A----------------------------3-----------------------2--------------------------
 E-------------------------------------------------------------------------------

2.Verse:
 
 e-------------------------------------------------------------------------------------------------------------------
 B----------------3--------------------------3-------------------------3-----------------------3------------3-----
 G----------2----------2--------------2----------2--------------2---------2------------------0------------0-----
 D-----0----------------------------------------------------------------------------------------0------------0-----
 A-------------------------------4---------------------------------------------------------------------0-----------
 E----------------------------------------------------------2--------------------------3----------------------------
 e-------------------------------------------------------------------------------------------------------------------
 B----------------3--------------------------3-------------------------3-----------------------3------------3-----
 G----------2----------2--------------2----------2--------------2---------2------------------0------------0-----
 D-----0----------------------------------------------------------------------------------------0------------0-----
 A-------------------------------4---------------------------------------------------------------------0-----------
 E----------------------------------------------------------2--------------------------3----------------------------
 e-------------------------------------------------------------------------------------------------------------------
 B---------------3------------------------3-------------------------------3---------------------------3----------
 G----------2-------2--------------0-----------0-------------------0---------0---------------2------------2--
 D----0-------------------------------------------------------------------------------------------------------------
 A------------------------------3---------------------------2----------------------------0----------------------
 E------------------------------------------------------------------------------------------------------------------
 e-------------------------------------------------------------------------------------------------------------------
 B---------------3------------------------3-------------------------------3---------------------------3----------
 G----------2-------2--------------0-----------0-------------------0---------0---------------2------------2--
 D----0-------------------------------------------------------------------------------------------------------------
 A------------------------------3---------------------------2----------------------------0----------------------
 E------------------------------------------------------------------------------------------------------------------

3.Chorus:
Bm- 4 times Asus4- 4 times E7- 8 times G- 8 times D- 4 times
 
 e---------------------------------------------------0--------------------3----------------2----------------------
 B-----3---------------------3--------------------- 0--------------------3----------------3-----------------------G-----4---------------------2----------------------1--------------------0---------------2-----------------------
 D-----4---------------------2----------------------0--------------------0----------------0-----------------------
 A-----2---------------------0----------------------2--------------------2---------------------------------------
 E---------------------------------------------------0---------------------3--------------------------------------

Bm- 4 times Asus4- 4 times E7- 8 times G- 8 times D- 4 times
 
 e---------------------------------------------------0--------------------3----------------2----------------------
 B-----3---------------------3--------------------- 0--------------------3----------------3-----------------------G-----4---------------------2----------------------1--------------------0---------------2-----------------------
 D-----4---------------------2----------------------0--------------------0----------------0-----------------------
 A-----2---------------------0----------------------2--------------------2---------------------------------------
 E---------------------------------------------------0---------------------3--------------------------------------

[D] [E7(E7] [E7)] [G(G] [G] [G] [G] [G] [G] [G)] 
[D] [E7(E7] [E7)] [G(G] [G] [G] [G] [G] [G] [G)] 
4.Verse
5.Chorus
6. Outro:
G- 8 times
 
 e ---------------2-----0----------------------------------------------3-------------------------------------------
 B----------------3-----3--------------------3------3-----------------3-------------------------------------------
 G----------------2-----2--------------------2------2-----------------0-------------------------------------------
 D--------0-----------------------------------0------0-----------------0------------------------------------------
 A-----------------------------------------------------------------------2-----------------------------------------E---------------------------------4-------------------------------------3-----------------------------------------

G- 8 times
 
 e ---------------2-----0----------------------------------------------3-------------------------------------------
 B----------------3-----3--------------------3------3-----------------3-------------------------------------------
 G----------------2-----2--------------------2------2-----------------0-------------------------------------------
 D--------0-----------------------------------0------0-----------------0------------------------------------------
 A-----------------------------------------------------------------------2-----------------------------------------E---------------------------------4-------------------------------------3-----------------------------------------

G- 8 times
 
 e--------------2-----0------------0-----------------------------------------3------------------------------------
 B-------------3-----3------------0------0-----0----------------------------3------------------------------------
 G-------------2-----2------------1------1-----1----------------------------0------------------------------------
 D------0--------------------------0------0-----0----------------------------0------------------------------------
 A----------------------------------2------2-----2----------------------------2-----------------------------------
 E----------------------------------0-------------------------------------------3----------------------------------

G- 8 times
 
 e ---------------2-----0----------------------------------------------3-------------------------------------------
 B----------------3-----3--------------------3------3-----------------3-------------------------------------------
 G----------------2-----2--------------------2------2-----------------0-------------------------------------------
 D--------0-----------------------------------0------0-----------------0------------------------------------------
 A-----------------------------------------------------------------------2-----------------------------------------E---------------------------------4-------------------------------------3-----------------------------------------
 e--------------------------------------------------------------2---------------------------------------------------
 B-------3--------3--------3------3------3-----3----3-------3-------------------------------------------------
 G-------0--------0--------0------2------0-----0----0-------2---------------------------------------------------
 D-------0--------2--------4-------------4------2----4---------------------------------------------------------
 A------------------------------------------------------------------------------------------------------------------
 E------------------------------------------------------------------------------------------------------------------


Important: The song above is NOT stored on the Chordie server. The original song is hosted at www.azchords.com. Chordie works as a search engine and provides on-the-fly formatting. Chordie does not index songs against artists'/composers' will. To remove this song please click here.

Text color:
Chord color:
Chord grids: 
Font size:    
Page size: 

D G
Rate #1 of 3 versions

Login - add to songbook

SHARE PAGE  




You need to log in to post comments