Guitar Tabs, Chords and Lyrics
Server problems seems to be fixed. Chordie has been experiencing problems with songs disappearing. These issues now seems to be fixed, but still verifying the fix. If you find anything strange, please email admin@chordie.com.


Alone   PAWS

 
 e|--5--4--9---5--5--5--|
 B|--7--4--9---5--5--7--|
 G|--7--6--11--5--7--7--|
 D|--6--6--11--7--7--6--|
 A|--5--5--10--7--6--5--|
 E|--5--4--9---5--5--5--|

 


 


 Is it fear or is it my true belief


 That I'll be alone?


 Forever alone


 The lights are off but I'm still home


 Hope didn't fade, I killed it dead then I dug a grave


 Shallow grave


 I've known love so f**k you


 If you think that I'm too young


 To think that I might not know another one


 


 [Bridge] 


 


 x4


 

 
 e|--5-5-5-----3-3-3-----0----|-----0-----|
 B|--7-7-7-----5-5-5-----3----|-----2-----|
 G|--7-5-7-----5-3-5-----2----|-----2-----|
 D|--6-7-6-----4-5-4-----0----|-----1-----|
 A|--5-5-5-----3-3-3-----1----|-----0-----|
 E|--5-5-5-----3-3-3-----0----|-----0-----|

 


 


 If you're alone, alone, alone, alone


 


 [Cborus] 


 


 

 
 e|--5--7--5--|
 B|--7--7--5--|
 G|--7--9--7--|
 D|--6--9--7--| x3
 A|--5--8--5--|
 E|--5--7--5--|

 


 Alone


 


 [Bridge] 


 


 x4


 

 
 e|--5-5-5-----3-3-3-----0----|-----0-----|
 B|--7-7-7-----5-5-5-----3----|-----2-----|
 G|--7-5-7-----5-3-5-----2----|-----2-----|
 D|--6-7-6-----4-5-4-----0----|-----1-----|
 A|--5-5-5-----3-3-3-----1----|-----0-----|
 E|--5-5-5-----3-3-3-----0----|-----0-----|

 


 


 If you're alone, alone, alone, alone


 


 [Verses] 


 


 

 
 e|--5--4--9---5--5--5--|
 B|--7--4--9---5--5--7--|
 G|--7--6--11--5--7--7--|
 D|--6--6--11--7--7--6--|
 A|--5--5--10--7--6--5--|
 E|--5--4--9---5--5--5--|

 


 


 He's got a gun, he likes the taste of metal in his mouth


 He's not the only one


 Cut up that noose, why should you care about what the others think?


 f**k what the others think


 When you die, you're gone, you're dust, there's no use for ya


 Why would you wanna go to your own funeral...


 


 [Bridge] 


 


 x4


 

 
 e|--5-5-5-----3-3-3-----0----|-----0-----|
 B|--7-7-7-----5-5-5-----3----|-----2-----|
 G|--7-5-7-----5-3-5-----2----|-----2-----|
 D|--6-7-6-----4-5-4-----0----|-----1-----|
 A|--5-5-5-----3-3-3-----1----|-----0-----|
 E|--5-5-5-----3-3-3-----0----|-----0-----|

 


 


 If you're alone?


 


 [Outro] 


 


 x4


 

 
 e|--0--7--5--|--0--0--0--0--|
 B|--0--7--5--|--0--0--0--2--|
 G|--7--9--7--|--7--5--3--2--|
 D|--6--9--7--|--6--6--2--1--|
 A|--5--8--5--|--5--7--1--0--|
 E|--0--7--5--|--0--0--0--0--| 


Important: The song above is NOT stored on the Chordie server. The original song is hosted at www.azchords.com. Chordie works as a search engine and provides on-the-fly formatting. Chordie does not index songs against artists'/composers' will. To remove this song please click here.

This song is displayed as text-only. Transposing and tuning is only available for chordpro-songs.
Rate #1 of 1 versions

Jango Player

Login - add to songbook

SHARE PAGE  



You need to log in to post comments